PrimaNota.ru - самый крупный в мире бесплатный архив песенных текстов, аккордов, табулатур и нот


Audio Adrenaline - Spirit Burn - бас-таба, видео

Регистрация Запомнить меня
Войти через:  Facebook Google Twitter Vk Yandex Mail.ru

Audio Adrenaline - Spirit Burn - бас-таба, видео

Печатать
Просмотров: 89
Уроки эстрадного вокала в Санкт-Петербурге
-------------------------------------------------------------------------------
                        SPIRIT BURN - Audio Adrenaline
-------------------------------------------------------------------------------
Tabbed by: LukasCarls
E-mail: lukas.carls@live.com

Tuning: Standard


Intro: 2x

G|---5---4---0--------|--------------------------|---5---4---0--------|--------------------------|
D|---------------2--0-|-0-2h---2--0--0-2h---2--0-|---------------2--0-|-0-2h---2--0--0-2h---2--0-|
A|--------------------|--------------------------|--------------------|--------------------------|
E|--------------------|--------------------------|--------------------|--------------------------|


Verse 1: 2x

G|---5---4---0--------|--------------------------|---5---4---0--------|--------------------------|
D|---------------2--0-|-0-2h---2--0--0-2h---2--0-|---------------2--0-|-0-2h---2--0--0-2h---2--0-|
A|--------------------|--------------------------|--------------------|--------------------------|
E|--------------------|--------------------------|--------------------|--------------------------|

Bless Your church with tongues of fire
Holy Spirit move
Leave no trace of man's desire
Spirit burn right through

Spirit burn, Spirit burn


Chorus:

G|-------------------|-------------------|-------------------|--------------------|
D|-------0---2-------|-------0---2-------|-------0---2-------|-------0---2--------|
A|---3---------------|---3---------------|---3---------------|---3----------------|
E|-------------------|-------------------|-------------------|--------------------|

Glorify Your name
Let Your kingdom rule over our hearts
Father show your face
Let the light of heaven shine from us


Verse 2:

G|---5---4---0--------|--------------------------|---5---4---0--------|--------------------------|
D|---------------2--0-|-0-2h---2--0--0-2h---2--0-|---------------2--0-|-0-2h---2--0--0-2h---2--0-|
A|--------------------|--------------------------|--------------------|--------------------------|
E|--------------------|--------------------------|--------------------|--------------------------|

Rushing wind blow through this place
Pierce this worldly viel
Fill our streeets with Your sweet salvation
Love that never fails

Spirit burn, Spirit burn


Chorus: 2x

G|-------------------|-------------------|-------------------|--------------------|
D|-------0---2-------|-------0---2-------|-------0---2-------|-------0---2--------|
A|---3---------------|---3---------------|---3---------------|---3----------------|
E|-------------------|-------------------|-------------------|--------------------|

Glorify Your name
Let Your kingdom rule over our hearts
Father show your face
Let the light of heaven shine from us


Bridge:

G|---------------|---------------|---------------|---------------|
D|--------0------|--------0------|--------2------|--------0------|
A|--3-3----------|--3-3----------|--3-3----------|--3-3----------|
E|---------------|---------------|---------------|---------------|

Holy fire
Fall like rain
Mark your church
Declare your name

Come in power
Come in rain
Sanctify
And stir your saints


Chorus: 3x

G|-------------------|-------------------|-------------------|--------------------|
D|-------0---2-------|-------0---2-------|-------0---2-------|-------0---2--------|
A|---3---------------|---3---------------|---3---------------|---3----------------|
E|-------------------|-------------------|-------------------|--------------------|

Glorify Your name
Let Your kingdom rule over our hearts
Father show your face
Let the light of heaven shine from us


| /  slide up
| \  slide down
| h  hammer-on
| p  pull-off
| ~  vibrato
| +  harmonic
| x  Mute note
===============================================================================
Добавлено: 16.12.2015
Другие материалы по этой песне:
  • Аккорды и текст

Страница создана 16.12.2015
http://primanota.ru/audio-adrenaline/spirit-burn-chords.htm
Привет, Гость.
Предлагаем пройти революционный курс по гитаре.
Подарок от PrimaNota.Ru, забирай!