PrimaNota.ru - самый крупный в мире бесплатный архив песенных текстов, аккордов, табулатур и нот


Audio Adrenaline - See Through - текст песни, таба, видео

Регистрация Запомнить меня
Войти через:  Facebook Google Twitter Vk Yandex Mail.ru

Audio Adrenaline - See Through - текст песни, таба, видео

Печатать
Просмотров: 127
Уроки эстрадного вокала в Санкт-Петербурге
		   Song: See Through
Artist: Audio Adrenaline
Album: Bloom
(c) 1996 Up In The Mix Music

here's the long awaited see through tablature!

See Through by audio adrenaline
(c) Up in the Mix Music

tune your low e string down to d
intro:
d|---7\\\------000000---|                |--5\\\-----000000-------|
d|---7\\\------000000---|
a|---7\\\------000000---|   4X then  |--5\\\-----000000-------|  2x then
a|---7\\\------000000---| 2x 
d|---7\\\------000000---|                |--5\\\-----000000-------|
d|---7\\\------000000---|

pre chorus:
b|---------------------------------------------------------------5///--10-10-10-1

0-10-----------|
g|--7--11-11--9-9-7-5--11-11-9-9-7-7--11-11-9-9-7-5------------------------------

--------|

e|------------------------------------------------------------------5--|
b|------------------------------------------------------------------7--|
g|--7--11-11--9-9-7-5--11-11-9-9-7-7--11-11-9-9-7-5----7---|

chorus:
g|---7-7-7-7-7---5-5-5-5-5---7-7-7-7-7---5-5-5---8-8-----|
d|---7-7-7-7-7---5-5-5-5-5---7-7-7-7-7---5-5-5---8-8-----|  and repeat
a|---5-5-5-0-5---3-3-3-0-3---5-5-5-0-5---3-3-3---6-6-----|

solo thingie:
b|--10-8-5-7-8-7-5-3-h5----3-h5-------| and repeat
g|----------------------------5--------5----|

i'll let you figure out the order it's played in on your own.

     
Добавлено: 29.11.2013
Другие материалы по этой песне:
  • Аккорды и текст

Страница создана 23.07.2012
http://primanota.ru/audio-adrenaline/see-through-chords.htm
Привет, Гость.
Предлагаем пройти революционный курс по гитаре.
Подарок от PrimaNota.Ru, забирай!