PrimaNota.ru - самый крупный в мире бесплатный архив песенных текстов, аккордов, табулатур и нот


Audio Adrenaline - Secret - текст песни, таба, видео

Регистрация Запомнить меня
Войти через:  Facebook Google Twitter Vk Yandex Mail.ru

Audio Adrenaline - Secret - текст песни, таба, видео

Печатать
Просмотров: 101
		   ecret
by Audio Adrenaline
tabbed by Justin Huddleston


Okay, this is as close as I could get it.  I only got part of the solo, but
it should be enough to get you started


Dropped D Tuning:
Low to High:(D-A-D-G-B-E)



Intro


------------------------------------------------------------------------------------------------------
------------------------------------------------------------------------------------------------------
------------------------------------------------------------------------------------------------------
------------------------------------------------------------------------------------------------------
------------------------------------------------------------------------------------------------------
2/9 9 x 9 x 9 9\2 2 x 2 x 2 2/9 9 x-9-9\2-2-x-2-------------------------------------
Riff A-2 times
-----------------------------------------------------------------------------------------------------
-----------------------------------------------------------------------------------------------------]
-----------------------------------------------------------------------------------------------------
-----------------------------------------------------------------------------------------------------
2 9 9 x 9 x 9 9\2 2 x 2 x 2 2/9 9 x 9 9\2 2 x 2------------------------------------
2/9 9 x 9 x 9 9\2 2 x 2 x 2 2/9 9 x 9 9\2 2 x 2------------------------------------


Verse 1
I once was lost in a foaming, roaming rabid sea
then blooms blossomed, changed my outlook, now I've been set free
---------------------------------------
---------------------------------------
---------------------------------------
9/12-12-12-12-12-12-12-9---
---------------------------------------
---------------------------------------
I once was sinking in a quarry of quicksand
somebody noticed and they offered me a hand
*I wanna tell it, I wanna say it, I wanna show it
Want you  to know it yea


*At the asterick begin this riff-4 times(Riff B)
-----------------------------------------
-----------------------------------------
-----------------------------------------
12^---------9^------------------------
----------------------------------------
-----------------------------------------


(^ is a bend up about 1/4 step)


Chorus-Riff A-4 times
I've got a secret and I cannot keep it
I've got a secret and i cannot,cannot keep it


Verse 2
There is a God and He's alive and keeps me well
that is the secret Mrs. Mademoiselle
*(begin riff B) I want to tell it, i wanna say it, i want to show it
Want you to know it yea
Chorus-Riff A-10 times
I've got a secret and I cannot keep it
i've got a secret and I cannot keep it
I got a Secret to the Universe,
Until you hear it , you won't know what its worth
I've got a secret
Solo-I think (asmuch as I can anyway)
-----------------------------------------------------------------------------------------------------------------
---------------------------------------------------------------------19trill------------------------------------
-----------------------------------------------9----------------------------------------------------------------
9^vvvvvvvv9-9-10-12-10-9-10-9-10----9vvvvvvvv----------------------------------------------------
-----------------------------------------------------------------------------------------------------------------
-----------------------------------------------------------------------------------------------------------------


Chorus-15 times-Riff A
I've got a secret and I cannot keep it
I've got a secret and i cannot keep it
I got a secret to the Universe
Until you hear it, you won't know what it's worth
I've got a secret
I've got a secret, yea
I've got a secret to the universe
ah, would you like to hear it
would you lke to hear it
would you like to hear it
I've got a secret


okay, that's as far as I can get it
If you have any corrections please email me at sbg4him@hotmail.com
Copyright 1996 The ForeFront Communications Group, Inc., 201 Seaboard Lane,
Franklin, TN 37067.   All Rights Reserved. International Copyright Secured.     
Добавлено: 19.09.2013
Другие материалы по этой песне:
  • Аккорды и текст

Страница создана 25.06.2012
http://primanota.ru/audio-adrenaline/secret-chords.htm
Привет, Гость.
Предлагаем пройти революционный курс по гитаре.
Подарок от PrimaNota.Ru, забирай!