PrimaNota.ru - самый крупный в мире бесплатный архив песенных текстов, аккордов, табулатур и нот


Audio Adrenaline - Memoir - текст песни, таба, видео

Регистрация Запомнить меня
Войти через:  Facebook Google Twitter Vk Yandex Mail.ru

Audio Adrenaline - Memoir - текст песни, таба, видео

Печатать
Просмотров: 112
Song: Memoir
Title: Bloom
Artist: Audio Adrenaline
Words and music by Barry Blair, Bob Herdman, Will McGinniss, and Mark Stuart. 
(C) 1996 Up In The Mix Music (a division of The ForeFront Communications Group, Inc.)

This tab was already in the archive, but I think this sounds better. I based it on the 
old one though. Just changed a few things to make it sound better and a little more 
accurate.

Tuning: Dropped D

Riff 1
|-------------------|
|-------------------|
|-7--5-7------------|
|-7--5-7----3-3-5---|
|-5--3-5----3-3-5---|
|---------0-3-3-5---|

Riff 2
|------------------------|
|------------------------|
|-7xxx5-7xxx-------------|
|-7xxx5-7xxx----3-3-5----|
|-5xxx3-5xxx----3-3-5----|
|-------------0-3-3-5----|

Riff 3
|---------------------------------|
|---------------------------------|
|-7xxx5-7xxx-------------10-10-10-|
|-7xxx5-7xxx----3-3-5xx--10-10-10-|
|-5xxx3-5xxx----3-3-5xx--8--8--8--|
|-------------0-3-3-5xx-----------|

Riff 4
|--x-x-x-x-x-x-x-x-x-x-x-x-x-x-x-x--|
|--x-x-x-x-x-x-x-x-x-x-x-x-x-x-x-x--|
|-/7-7-7-7-7-7-7-7\5-5-5-5\4-4-4-4--|
|--x-x-x-x-x-x-x-x-x-x-x-x-x-x-x-x--|
|-/5-5-5-5-5-5-5-5\3-3-3-3\2-2-2-2--|
|--x-x-x-x-x-x-x-x-x-x-x-x-x-x-x-x--|

Riff 5
|---------------------------------|
|---------------------------------|
|------10-10----------------------|
|------10-10----------------------|
|------8--8---------/5-3-3-3p2-0--|
|-0-0---------0-0-----------------|

Riff 6
|------------|
|------------|
|------10-10-|
|------10-10-|
|------8--8--|
|-0-0--------|

Riff 7
|---------------------------------------------|
|---------------------------------------------|
|---------------------------------------------|
|---------------------------------------------|
|---------------------------------------------|
|-0-0-3-0-3-4-5-0-0-3-0-3-4-5-0-0-3-0-3-4-5-0-|

Riff 8
|----------------|
|----------------|
|----------------|
|----------------|
|-/5~-3~-2-3p2-0-|
|----------------|

Riff 9
|---------------------------------------------|
|---------------------------------------------|
|---------------------------------------------|
|-0-0-----------0-0-----------0-0-----------0-|
|-0-0-----------0-0-----------0-0-----------0-|
|-0-0-3-0-3-4-5-0-0-3-0-3-4-5-0-0-3-0-3-4-5-0-|

Riff 10
|---------------------------------------------|
|---------------------------------------------|
|---------------------------------------------|
|-0-0-3-0-3-4-5-0-0-3-0-3-4-5-0-0-3-0-3-4-5-0-|
|-0-0-3-0-3-4-5-0-0-3-0-3-4-5-0-0-3-0-3-4-5-0-|
|-0-0-3-0-3-4-5-0-0-3-0-3-4-5-0-0-3-0-3-4-5-0-|

Riff 11
|--x-x-x-x-x-x-x-x-x-x-x-x--x--x--|
|--x-x-x-x-x-x-x-x-x-x-x-x--x--x--|
|-/7-7-7-7-7-7-7-7/5-5-5/10-10-10-|
|--x-x-x-x-x-x-x-x-x-x-x-x--x--x--|
|-/5-5-5-5-5-5-5-5/3-3-3/8--8--8--|
|--x-x-x-x-x-x-x-x-x-x-x-x--x--x--|

Riff 12
|--x-x-x-x-x-x-x-x-x-x-x-x-x-x-x-x--|
|--x-x-x-x-x-x-x-x-x-x-x-x-x-x-x-x--|
|-/7-7-7-7-7-7-7-7\5-5-5\4-4-4/5\4--|
|--x-x-x-x-x-x-x-x-x-x-x-x-x-x-x-x--|
|-/5-5-5-5-5-5-5-5\3-3-3\2-2-2/3\2--|
|--x-x-x-x-x-x-x-x-x-x-x-x-x-x-x-x--|

Riff 13
|--x-x-x-x-x-x-x-x-x-x-x------------------------|
|--x-x-x-x-x-x-x-x-x-x-x------------------------|
|-/7-7-7-7-7-7-7-7\5-5-5/7\5/7\5/7\5/7\5/7\5/7--|
|--x-x-x-x-x-x-x-x-x-x-x-x-x-x-x-x-x-x-x-x-x-x--|
|-/5-5-5-5-5-5-5-5\3-3-3/5\3/5\3/5\3/5\3/5\3/5--|
|--x-x-x-x-x-x-x-x-x-x-x------------------------|
                                                  
Here's the order:

Intro
Riff 1
Riff 4 4x

Verse
Riff 1 2x
Riff 2
Riff 3
Riff 1
Riff 2
Riff 1 2x

Chorus
Riff 4 4x

Riff 5 2x
Riff 6

Verse 2
Riff 1 2x
Riff 2 2x

Chorus 2x

Riff 5 2x
Riff 6

Bridge
Riff 7 
Riff 8
Riff 7
Riff 8
Riff 9
Riff 8
Riff 10
Riff 8

Riff 1
Chorus 2x

Outro
Riff 11
Riff 12
Riff 11
Riff 13 and repeat the real fast sliding until the end. Also try tremolo picking for it. 

There it is. It's the first song I've tabbed before. But I had help from Daniel McNeal, 
the guy who tabbed this song before me. Thanks. 
***********************************************
Lyrics:

-Verse 1-

THERE IS MUSIC AND LAUGHTER LATELY
AND THERE'S PRAYERS AND PRAISE
THERE ARE REASONS TO BE SO HAPPY 
AND BELIEFS TO EMBRACE 
THERE ARE TIMES TO BE SO ANGRY
I'D RATHER LIE IN THE SUN
IT'S THE SUMMER OF MY LIFETIME 
I'VE BEEN BELSSED WITH SOME FUN

-Chorus-

I'M A SEASON PAST SPRINGTIME 
AND MY LIFE HAS GONE BOOM
KEEP MY EYES ON THE FATHER 
EVERYTHING IS IN BLOOM

-Verse 2-
EVERYTHING WILL JUST GET BETTER
THROUGH THE SEASONS I'LL ROAM
WHEN ALL OF THE MUSIC'S OVER
I WILL GET TO GO HOME

-Bridge-

I DON'T NEED THEOLOGY
TO KNOW THAT GOD'S BEEN GOOD TO ME
HE'S GIVEN ME A FAMILY (AND A PLACE TO LAY MY HEAD)
FLUNG INTO THE GREAT UNKNOWN 
I WAS WALKING ON MY OWN 
NOW I NEVER WALK ALONE (IF I DID I WOULD BE DEAD)
I CAN'T USE IT ALL MYSELF 
SO I TAKE IT OFF THE SHELF
HERE IT IS ENJOY YOURSELF (PUT AWAY YOUR DRUDGERY)
USE IT UP, THERE'S ALWAYS MORE
THAT'S WHAT IT'S INTENDED FOR
BE THE LORD'S AMBASSADOR (TO BE THE PLANETS REMEDY)


Добавлено: 27.07.2013
Другие материалы по этой песне:
  • Аккорды и текст

Страница создана 01.04.2012
http://primanota.ru/audio-adrenaline/memoir-chords.htm
Привет, Гость.
Предлагаем пройти революционный курс по гитаре.
Подарок от PrimaNota.Ru, забирай!