PrimaNota.ru - самый крупный в мире бесплатный архив песенных текстов, аккордов, табулатур и нот


Audio Adrenaline - Live Bootleg - таба, видео

Регистрация Запомнить меня
Войти через:  Facebook Google Twitter Vk Yandex Mail.ru

Audio Adrenaline - Live Bootleg - таба, видео

Печатать
Просмотров: 82
		   Song: Intro to the album Live Bootleg.
Artist: Audio Adrenaline

The song starts off with a slight bend on the B string 
have fun!!!

Mike: GuitarsnJesus@juno.com

E :-----------------------------------------
B :-----2^------2^----------------2^--------
G :-----------------2------0----------------
D :-2-2-----2-2-------0-h1----2-2-----2-2--2
A :-0-0-----0-0---------------0-0-----0-0--0
E :-----------------------------------------
                
                  At the end play this
E :--------------|-------------------------|
B :----5\--3\--2-|-9\-7\-5\--4\--3\--2\--~-|
G :-2/-5\--3\--2-|-9\-7\-5\--4\--3\--2\--~-|
D :h3/-5\--3\--2-|-9\-7\-5\--4\--3\--2\--~-|
A :--------------|-------------------------|
E :--------------|-------------------------|     
Добавлено: 15.10.2013
Другие материалы по этой песне:
  • Аккорды и текст

Страница создана 15.10.2013
http://primanota.ru/audio-adrenaline/live-bootleg-chords.htm
Привет, Гость.
Предлагаем пройти революционный курс по гитаре.
Подарок от PrimaNota.Ru, забирай!