PrimaNota.ru - самый крупный в мире бесплатный архив песенных текстов, аккордов, табулатур и нот


Audio Adrenaline - Can't Take God Away - текст песни, таба, видео

Регистрация Запомнить меня
Войти через:  Facebook Google Twitter Vk Yandex Mail.ru

Audio Adrenaline - Can't Take God Away - текст песни, таба, видео

Печатать
Просмотров: 138
Уроки эстрадного вокала в Санкт-Петербурге
Авторы: Toby McKeehan, Will McGinniss, Barry Blair, Bob Herdman, Mark Stuart

		   Author/Artist: Audio Adrenaline
Title: Can't Take God Away
Album: Don't Censor Me and Live Bootleg
Transcribed by: Matt Smyczynski
Email: atomshroom@hotmail.com


This is a cool song.  


-7----------------------------
-8----------------------------
-9----------------------------
-9----------------------------
-7----------------------------
------------------------------
Intro-jam on that chord (Em)                                                 


------------------------------
------------------------------
------------------------------
------------------------------
-7\---------------------------
----0--3-4-5-7----------------
Verse                                                                        


------------------------------
------------------------------
------------------------------
------------------------------
-----9----7-------------------
-7----------------------------
Pre-chorus                                                                   


--------------------------------------------------------
----8------8---------7-------7--7-7----8-----8----8-----
----9------9---------7-------7--7-7----9-----9----9-----
----9------9---------7-------7--7-7----9-----9----9-----
----7------7-----5---5----5--5--5-5----7-----7----7-----
-0------0----------------------------0-----0----0-------
Chorus                                                                       


---------------------------------------------
---------------------------------------------
----------7-6------------------7-6-----------
------7h9-----7-6---------7h9-------7--------
--7---------------9-6---7--------------------
---------------------------------------------
Interlude                                                                    
Have fun with it!     
Добавлено: 05.02.2014
Другие материалы по этой песне:
  • Аккорды и текст

Страница создана 02.04.2012
http://primanota.ru/audio-adrenaline/cant-take-god-away-chords.htm
Привет, Гость.
Предлагаем пройти революционный курс по гитаре.
Подарок от PrimaNota.Ru, забирай!