PrimaNota.ru - самый крупный в мире бесплатный архив песенных текстов, аккордов, табулатур и нот


Audio Adrenaline - Bloom - таба, видео

Регистрация Запомнить меня
Войти через:  Facebook Google Twitter Vk Yandex Mail.ru

Audio Adrenaline - Bloom - таба, видео

Печатать
Просмотров: 86
bloom by Audio Adrenaline



Guitar tuned down a whole step to:  D G C F A D

Fill #1
|----------------|
|----------------|
|-9--7-9---------|
|-9--7-9---5-5-7-|
|-7--5-7---5-5-7-|
|--------0-3-3-5-|

Fill #2
|-------------------------------------|
|-------------------------------------|
|-/9-9-9-9-9-9-9-9-9\7-7-7\6-6-6/7--7-|
|-------------------------------------|
|-/7-7-7-7-7-7-7-7-7\5-5-5\4-4-4/5-5--|
|-------------------------------------|

Fill #3
|-------------------------|
|-------------------------|
|-------------------------|
|-------------------------|
|------------/7-5-5-5\4-5-|
|-0-0-3--0-0--------------|

Fill #4
|----------------------------------------------------------|
|----------------------------------------------------------|
|----------------------------------------------------------|
|----------------------------------------------------------|
|-------------------------------------------/7-7-5-5-4-4-5-|
|-0-0-3-0-3-4-5-0-0-3-0-3-4-5-0-0-3-0-3-4-5----------------|

Fill #5
|--------------------------------------|
|--------------------------------------|
|-/9-9-9-9-9-9-9-9-9\7-7-7/12-12-12-12-|
|--------------------------------------|
|-/7-7-7-7-7-7-7-7-7\5-5-5/10-10-10-10-|
|--------------------------------------|

-Intro-
-Fill #1-
-Fill #2 X4-

-Verse 1-
repeat Fill #1 throughout the verse

THERE IS MUSIC AND LAUGHTER LATELY
AND THERE'S PRAYERS AND PRAISE
THERE ARE REASONS TO BE SO HAPPY 
AND BELIEFS TO EMBRACE 
THERE ARE TIMES TO BE SO ANGRY
I'D RATHER LIE IN THE SUN
IT'S THE SUMMER OF MY LIFETIME 
I'VE BEEN BELSSED WITH SOME FUN

-Chorus-
repeat Fill #2 throughout the chorus

I'M A SEASON PAST SPRINGTIME 
AND MY LIFE HAS GONE BOOM
KEEP MY EYES ON THE FATHER 
EVERYTHING IS IN BLOOM

-Fill #3 X 2.5-

-Verse 2-
EVERYTHING WILL JUST GET BETTER
THROUGH THE SEASONS I'LL ROAM
WHEN ALL OF THE MUSIC'S OVER
I WILL GET TO GO HOME

-Chorus X 2-

-Fill #3 X 2.5-

-Bridge-
repeat Fill #4 throughout the bridge

I DON'T NEED THEOLOGY
TO KNOW THAT GOD'S BEEN GOOD TO ME
HE'S GIVEN ME A FAMILY (AND A PLACE TO LAY MY HEAD)
FLUNG INTO THE GREAT UNKNOWN 
I WAS WALKING ON MY OWN 
NOW I NEVER WALK ALONE (IF I DID I WOULD BE DEAD)
I CAN'T USE IT ALL MYSELF 
SO I TAKE IT OFF THE SHELF
HERE IT IS ENJOY YOURSELF (PUT AWAY YOUR DRUDGERY)
USE IT UP, THERE'S ALWAYS MORE
THAT'S WHAT IT'S INTENDED FOR
BE THE LORD'S AMBASSADOR (TO BE THE PLANETS REMEDY)

-Fill #1-

-Chorus X 2-
Fill #5
EVERYTHING EVERYTHING
Fill #2
EVERYTHING EVERYTHING
Fill #5 
I'M A SEASON PAST MY SPRINGTIME
Fill #2
I'M A SEASON PAST MY SPRINGTIME
Fill #5
I'M A SEASPN PAST MY SPRINGTIME
Fill #2
AND MY LIFE HAS GONE BOOM
Добавлено: 19.10.2013
Другие материалы по этой песне:
  • Аккорды и текст

Страница создана 19.10.2013
http://primanota.ru/audio-adrenaline/bloom-chords.htm
Привет, Гость.
Предлагаем пройти революционный курс по гитаре.
Подарок от PrimaNota.Ru, забирай!