PrimaNota.ru - самый крупный в мире бесплатный архив песенных текстов, аккордов, табулатур и нот


Audio Adrenaline - Blitz - текст песни, таба, бас-таба, видео

Регистрация Запомнить меня
Войти через:  Facebook Google Twitter Vk Yandex Mail.ru

Audio Adrenaline - Blitz - текст песни, таба, бас-таба, видео

Печатать
Просмотров: 110
Уроки эстрадного вокала в Санкт-Петербурге
		   Author/Artist: Audio Adrenaline
Title: Blitz
Album: Some Kind of Zombie
Transcribed by: Brian Germer (Soul Detergent Music)
Email: BJG20773@ix.netcom.com

New song done with the Supertones!  Use dropped-D tuning (DADGBE) low to high.
Intro:

------|-----------------------------------------|-----------------------------
------|-----------------------------------------|-----------------------------
------|-----------------------------------------|-----------------------------
-0----|-----------------------------------------|----2------0-----------------
-0----|--3--4--5-------------3--4--5------------|----2------0-----------------
-0----|------------0--0---0-----------0--0---0--|----2------0-----------------
 w/flange           Play this 4x                   after 4x                   

---------------------------------------||-------------------------------------
---------------------------------------||-------------------------------------
---------------------------------------||-------------------------------------
---3-3-3--0--3---3-0-3-0-3-0---5-5-5b--||---5-------0-------5-------3---------
---------------------------------------||---5-------0-------5-------3---------
---------------------------------------||---5-------0-------5-------3---------
  Verses   Play 8x                          Chorus  Chords                    

14 kids in an old church van.
With a light in their eyes and some tracts in their hands.
60 MPH feels way to slow.
When you've got the Chevy pointed down to Mexico.

Chorus:
We all want to run the race to win.
Never giving up or giving in.
Coming at you like a blitz.

They've had three flats, and their radiator's leaking.
Ain't nothing gonna keep' em from the prize that they're seeking.
They're riding all together and it's in God's hand.

(Chourus)
Refrain w/Samples

They're jamming at the show and everybody's freakin'.
Ain't nothing gonna keep' em from the prize that they're seeking.
They don't get around like ordinary fans.
14 kids in old church van.

(Chorus over intro riff)

C1997 Up in the Mix Music.  Words and music by Bob Herdman, Will McGinniss, Mark Stuart
     
Добавлено: 09.10.2013
Другие материалы по этой песне:
  • Аккорды и текст

Страница создана 11.07.2012
http://primanota.ru/audio-adrenaline/blitz-chords.htm
Привет, Гость.
Предлагаем пройти революционный курс по гитаре.
Подарок от PrimaNota.Ru, забирай!