PrimaNota.ru - самый крупный в мире бесплатный архив песенных текстов, аккордов, табулатур и нот


Audible Mainframe - Ice Cold - таба, видео

Регистрация Запомнить меня
Войти через:  Facebook Google Twitter Vk Yandex Mail.ru

Audible Mainframe - Ice Cold - таба, видео

Печатать
Просмотров: 60
http://www.theaudiblemainframe.com/

Intro
e|----------------------------------------------------------11-8-|
B|-------6--------8---------9--------6--------8---------9--------|
G|-----6--------8--------10--------6--------8--------10----------|
D|---6--------8--------10--------6--------8--------10------------|
A|-4--------6--------8---------4--------6--------8---------------|
E|---------------------------------------------------------------|

e|-------------------------------------------8~~----|
B|-------6--------8---------9------6---------6~~----|
G|-----6--------8--------10-----------6--8---6~~-8\-|
D|---6--------8--------10--------6-------8-------8\-|
A|-4--------6--------8---------4---------6-------6\-|
E|--------------------------------------------------|


Verse 1
 I'm trying to make a dollar out of my 2 cent
e|----------------------------------------------------------11-8-|
B|-------6--------8---------9--------6--------8---------9--------|
G|-----6--------8--------10--------6--------8--------10----------|
D|---6--------8--------10--------6--------8--------10------------|
A|-4--------6--------8---------4--------6--------8---------------|
E|---------------------------------------------------------------|

  Cause shorty cant eat no bootleg Cds
e|-------------------------------------------8~~----|
B|-------6--------8---------9------6---------6~~----|
G|-----6--------8--------10-----------6--8---6~~-8\-|
D|---6--------8--------10--------6-------8-------8\-|
A|-4--------6--------8---------4---------6-------6\-|
E|--------------------------------------------------|

 So even though I might be nice
e|------------------------------8~----------------------------------11-8-|
B|-----6--------8------------9--9~-------6--------8------------9-9-------|
G|-------6--------8-------10---10~---------6--------8-------10---10------|
D|---6--------8--------10------10~----6---------8--------10--------------|
A|-4--------6--------8--------------4---------6--------8-----------------|
E|-----------------------------------------------------------------------|

I'm too broke to be writing cute rhymes
e|------------------------------8~--------------8~~-----|
B|-----6--------8------------9--9~------6-------6~~-----|
G|-------6--------8-------10---10~-------6---8--6~~--8\-|
D|---6--------8--------10------10~----6------8-------8\-|
A|-4--------6--------8--------------4--------6-------6\-|
E|------------------------------------------------------|


Chorus 1
Guitar 1
e|------------------------------------------------------------------------------|
B|-x-6-x-6--x-8-x-8--9--x-9--x-9--x-9----x-6-x-6--x-8-x-8--9--x-9---9p8---------|
G|-x-6-x-6--x-8-x-8--10-x-10-x-10-x-10---x-6-x-6--x-8-x-8--10-x-10------10p8h10-|
D|------------------------------------------------------------------------------|
A|------------------------------------------------------------------------------|
E|------------------------------------------------------------------------------|

e|----------------------------------------------------------6~~~|
B|-x-6-x-6--x-8-x-8--9--x-9--x-9--x-9----x-6-x-6--x-8-x-8---8~~~|
G|-x-6-x-6--x-8-x-8--10-x-10-x-10-x-10---x-6-x-6--x-8-x-8---8~~~|
D|--------------------------------------------------------------|
A|--------------------------------------------------------------|
e|--------------------------------------------------------------|

Guitar 2/3
e|---------------------------------------------------------------------------|
B|-x-6-x-6--x-8-x-8--9--x-9--x-9--x-9----x-6-x-6--x-8-x-8--9--x-9--x-9--x-10-|
G|-x-6-x-6--x-8-x-8--10-x-10-x-10-x-10---x-6-x-6--x-8-x-8--10-x-10-x-10-x-10-|
D|---------------------------------------------------------------------------|
A|---------------------------------------------------------------------------|
E|---------------------------------------------------------------------------|

e|----------------------------------------------------------6~~~|
B|-x-6-x-6--x-8-x-8--9--x-9--x-9--x-9----x-6-x-6--x-8-x-8---8~~~|
G|-x-6-x-6--x-8-x-8--10-x-10-x-10-x-10---x-6-x-6--x-8-x-8---8~~~|
D|--------------------------------------------------------------|
A|--------------------------------------------------------------|
e|--------------------------------------------------------------|


Pre Verse Riff (Guitar 2/3 repeats Chorus riff)
Guitar 1
e|-11-----------11------------------------------|
B|----13------------13--------------------------|
G|-------12-10---------12-10--10-8-10--10-8-10--|
D|----------------------------------------------|
A|----------------------------------------------|
E|----------------------------------------------|

e|-11----------------------------------------|
B|----13-------------------------------------|
G|-------12-10--10-8--10-12-13--10-12-13--10-|
D|-------------------------------------------|
A|-------------------------------------------|
E|-------------------------------------------|

e|-11-------------11-----------------------------------------------6~~~|
B|-----13------------13-------------------------11-----------------8~~~|
G|---------12-10---------12-10--10-8-10--12-13------13-12-10-10-8--8~~~|
D|---------------------------------------------------------------------|
A|---------------------------------------------------------------------|
E|---------------------------------------------------------------------|


Verse 2
Guitar rests enter at 1.52

Synth
e|----------------|
B|-6--8--8-11--11-|
G|-6--8--8\11--11-|
D|-6--8--8\10--10-|
A|----------------|
E|----------------|


I break it down like
e|----------------------------8~-----------------8~~-----|
B|-------6--------8---------9-9~--------6--------6~~-----|
G|-----6--------8--------10---10~---------6---8--6~~--8\-|
D|---6--------8--------10-----10~-----6-------8-------8\-|
A|-4--------6--------8--------------4---------6-------6\-|
E|-------------------------------------------------------|

 And hi here he looks
e|------------------------------8~----------------------------------11-8-|
B|-----6--------8------------9--9~-------6--------8------------9-9-------|
G|-------6--------8-------10---10~---------6--------8-------10---10------|
D|---6--------8--------10------10~----6---------8--------10--------------|
A|-4--------6--------8--------------4---------6--------8-----------------|
E|-----------------------------------------------------------------------|

The same man who nearly
e|------------------------------8~--------------8~~-----|
B|-----6--------8------------9--9~------6-------6~~-----|
G|-------6--------8-------10---10~-------6---8--6~~--8\-|
D|---6--------8--------10------10~----6------8-------8\-|
A|-4--------6--------8--------------4--------6-------6\-|
E|------------------------------------------------------|


Chorus 2
Guitar 1
e|------------------------------------------------------------------11p8--11p8-|
B|-x-6-x-6--x-8-x-8--9--x-9--x-9--x-9----x-6-x-6--x-8-x-8--9--x-9--------------|
G|-x-6-x-6--x-8-x-8--10-x-10-x-10-x-10---x-6-x-6--x-8-x-8--10-x-10-------------|
D|-----------------------------------------------------------------------------|
A|-----------------------------------------------------------------------------|
E|-----------------------------------------------------------------------------|

e|----------------------------------------------------------6~~~|
B|-x-6-x-6--x-8-x-8--9--x-9--x-9--x-9----x-6-x-6--x-8-x-8---8~~~|
G|-x-6-x-6--x-8-x-8--10-x-10-x-10-x-10---x-6-x-6--x-8-x-8---8~~~|
D|--------------------------------------------------------------|
A|--------------------------------------------------------------|
e|--------------------------------------------------------------|

Guitar 2/3
e|---------------------------------------------------------------------------|
B|-x-6-x-6--x-8-x-8--9--x-9--x-9--x-9----x-6-x-6--x-8-x-8--9--x-9--x-9--x-10-|
G|-x-6-x-6--x-8-x-8--10-x-10-x-10-x-10---x-6-x-6--x-8-x-8--10-x-10-x-10-x-10-|
D|---------------------------------------------------------------------------|
A|---------------------------------------------------------------------------|
E|---------------------------------------------------------------------------|

e|----------------------------------------------------------6~~~|
B|-x-6-x-6--x-8-x-8--9--x-9--x-9--x-9----x-6-x-6--x-8-x-8---8~~~|
G|-x-6-x-6--x-8-x-8--10-x-10-x-10-x-10---x-6-x-6--x-8-x-8---8~~~|
D|--------------------------------------------------------------|
A|--------------------------------------------------------------|
e|--------------------------------------------------------------|


Repeat Pre Verse Riff

Then the Pre Verse Riff is repeated, but faster
Guitar 2  (x2) plays this through out, and through the solo too.
              (x3)
e|------------------------------8~--|----------------------------8-|
B|-----6--------8------------9--9~--|-----6--------8-------------8-|
G|-------6--------8-------10---10~--|-------6--------8--------6--6-|
D|---6--------8--------10------10~--|---6--------8----------8------|
A|-4--------6--------8--------------|-4--------6----------8--------|
E|----------------------------------|-------------------6----------|


Guitar 1 (3.17 - 3.29) (x5)
e|-(11)-11-----------------|
B|---------13----11--13----|
G|------------12-------12--|
D|-------------------------|
A|-------------------------|
E|-------------------------|

Solo
Guitar 1
B|-13(x11)----13(x11)----13(x8)-15-13-11-----13\11-15--13\11-15--13\11-|
G|---------13---------13-----------------13----------------------------|
D|---------------------------------------------------------------------|
A|---------------------------------------------------------------------|
E|---------------------------------------------------------------------|

Outro
Guitar 1
e|-------------------------------------------------------------------------------------|
B|--------------------------9-9-9-9-9-9-9-9-11-11-11-11-11-11-11-11-11-----------------|
G|-10-10-10-10--12-12-12-12--------------------------------------------101010-8-1010-8-|
D|-------------------------------------------------------------------------------------|
A|-------------------------------------------------------------------------------------|
E|-------------------------------------------------------------------------------------|

e|-11-------------11-----------------------------------------------6~~~|
B|-----13------------13-------------------------11-----------------8~~~|
G|---------12-10---------12-10--10-8-10--12-13------13-12-10-10-8--8~~~|
D|---------------------------------------------------------------------|
A|---------------------------------------------------------------------|
E|---------------------------------------------------------------------|

Guitar 2/3
           (x3)
e|----------------------------|---------------|
B|----------------------------|---------------|
G|-6666-8888-1010101010101010-|-6666-8888-----|
D|-6666-8888-1010101010101010-|-6666-8888-8~--|
A|-4444-6666-8-8-8-8-8-8-8-8--|-4444-6666-8~--|
E|----------------------------|-----------6~--|
Добавлено: 04.07.2013
Другие материалы по этой песне:
  • Аккорды и текст

Страница создана 04.07.2013
http://primanota.ru/audible-mainframe/ice-cold-chords.htm
Привет, Гость.
Предлагаем пройти революционный курс по гитаре.
Подарок от PrimaNota.Ru, забирай!