PrimaNota.ru - самый крупный в мире бесплатный архив песенных текстов, аккордов, табулатур и нот


Attic Abasement - Australia - таба, видео

Регистрация Запомнить меня
Войти через:  Facebook Google Twitter Vk Yandex Mail.ru

Attic Abasement - Australia - таба, видео

Печатать
Просмотров: 199
Уроки эстрадного вокала в Санкт-Петербурге
This is Australia by attic abasement. It is in drop D standard capo 2.

e|---------------------------------------------------------------------|
b|----------------2-3-2---2--------------------------------------------|
g|--2---2---2-----------2---2-2---------------------0---------------0--|   Not really sure how many times
d|----4---4---4-----------------4-0-2---0---0---0-4-----0---0---0-4----|
a|------------------------------------2---2---5-------2---2---5--------|
D|--0---0---0---------0---0---0---0---5---5---5-------5---5---5--------|

"And how do I know that I'm alive..."

e|--2-------|
b|--3-3-3-3-|
g|--4-2-2-2-|
d|--4-0-0-0-|    Again not sure
a|--2-0-0-0-|
D|----0-5-4-|
Добавлено: 30.12.2015
Другие материалы по этой песне:
  • Аккорды и текст

Страница создана 30.12.2015
http://primanota.ru/attic-abasement/australia-chords.htm
Привет, Гость.
Предлагаем пройти революционный курс по гитаре.
Подарок от PrimaNota.Ru, забирай!