PrimaNota.ru - самый крупный в мире бесплатный архив песенных текстов, аккордов, табулатур и нот


Attaque 77 - Tres Pajaros Negros - текст песни, таба, видео

Регистрация Запомнить меня
Войти через:  Facebook Google Twitter Vk Yandex Mail.ru

Attaque 77 - Tres Pajaros Negros - текст песни, таба, видео

Печатать
Просмотров: 163
Уроки эстрадного вокала в Санкт-Петербурге
                "TRES PAJAROS NEGROS" (version Trapos)

INTRO:

A#(dejar sonar)

   F          C               F           C
e------------------------------------------------------------------------|
B------------------------------------------------------------------------|
G------------------------------------------------------------------------|
D--7--9--11--7~(dejar sonar)---7--9--11--7~(dejar sonar)-----------------|
A---------------------------------------------------------7~(dejar sonar)|
E------------------------------------------------------------------------|

   F         C                 A#(dejar sonar)
e--------------------------------------------|
B--------------------------------------------|
G-------------9b10----9h10p9---8-------------|
D--7--9--11------------------------9~--------|
A--------------------------------------------|
E--------------------------------------------|

 PRIMERA PARTE: rasgueos lentos estilo reggae.

Dm                                             G
Quise perder mi rastro y me escapé de la ciudad,
Dm                                            G
  quise perder mi rastro pero me siguieron igual
F                                             G   Am
tres pájaros negros vuelan dando vueltas sobre mi,
F                                             G F G
  hice todo por echarlos, pero no se quieren ir...

 SEGUNDA PARTE: se toca con quintas.

Dm                                        G (fig1)
  Iba entre las piedras buscando dónde parar
Dm                                           G (fig1)
  y en la orilla del río  me detuve a descansar
F                                                   Am
qué es lo que está pasando?, una mujer dijo al pasar
F                                              G F G (fig2)
el día está nublado, pero el sol me quema igual,
Dm                                           G (fig1)
  sumergite un rato; yo le hice caso sin pensar
Dm                                          G (fig1)
quédate bajo el agua, así los pájaros se van
F                                       Am
la corriente me llevaba y subí a respirar, G      F     G (fig2)
grita pidiendo ayuda y ella no estaba mas  ...  a dónde estas?

F(en el octavo traste) C F C F C A# = x2

F                       F                         A#
  Estoy nadando en contra, siempre en el mismo lugar,
F                                                   A#
  me entretengo a mi suerte, y mi suerte me quiere matar
G#                                             Cm
y los tres pájaros negros se vinieron sobre mi...
 G#                                         A# G# A# G# A# G#
... si no fuera por ellos no podría estar aquí¡... hablándote.

                        G
2da guitarra   e--------3-----1--2--1--2--1----------- |    \
               B--------3-------------------|   ------ |
   fig1------> G--------4-------------------|   ------ |    x2
               D---5------------------------|   ------ |
               A---5------------------------|   ------ |
               E---3---------------------------------- |    /

                   F                                 G         F         G
2da guitarra   e------------------------------------------------------3---|
               B--6h7p6h7p6h7p--6b8---------------------3---------1---4---|
   fig2------> G-------------------------------------4---------2------5---|
               D----------------------------------5---------3---------5---|
               A------------------------------------------------------3---|
               E------------------------------------------------------3---|

FINAL

F(octavo traste) (s) A#(tras trece) (hasta el fin)


      F        C          Cm     A        A#        Dm    G     G#
e--1-----8--|--3----8---|--3--|--5--|--6-----13--|--5--|--3--|--4-----|
B--3-----10-|--5----8---|--4--|--5--|--6-----15--|--6--|--3--|--4-----|
G--3--o--10-|--5--o-9---|--5--|--6--|--7--o--15--|--7--|--4--|--5-----|
D--3-----10-|--5----10--|--5--|--7--|--8-----15--|--7--|--5--|--6-----|
A--1-----8--|--3----10--|--3--|--7--|--8-----13--|--5--|--5--|--6-----|
E--------8--|--x----8---|--x--|--5--|--6-----x---|--x--|--3--|--4-----|

~ = vibrato
b = Bending
h = ligado ascendente
p = ligado descedente
s = slide

Soy Gabriel Gonzalez, tengo 17 años y esta es mi primer tab, espero
que les guste,
creo que esta bastante bien (modestia aparte)***
Cualquier duda o correccion envienla a *lp_gabriel_gon@hotmail.com*

SALUDOS A TODOS MIS AMIGOS DEL COLEGIO SAN ANTONIO DE PADUA!!!!!
Добавлено: 04.07.2012
Другие материалы по этой песне:
  • Аккорды и текст

Страница создана 27.02.2012
http://primanota.ru/attaque-77/tres-pajaros-negros-chords.htm
Привет, Гость.
Предлагаем пройти революционный курс по гитаре.
Подарок от PrimaNota.Ru, забирай!