PrimaNota.ru - самый крупный в мире бесплатный архив песенных текстов, аккордов, табулатур и нот


Attaque 77 - Surfeando En El Soretero - аккорды и текст, таба, видео

Регистрация Запомнить меня
Войти через:  Facebook Google Twitter Vk Yandex Mail.ru

Attaque 77 - Surfeando En El Soretero - аккорды и текст, таба, видео

Печатать
Просмотров: 126
Surfeando En El Soretero
Attaque 77


Surfeando en el soretero
IntГ©rprete: Attaque 77
Autor: Attaque 77
Album: Antihumano

E5 p.m.         D5 p.m.       A5 p.m.     E5 p.m.
Sigo vivo de milagro, que postal que emociГіn
                   D5 p.m.      A5 p.m.      B5
Surfeando en el desagГјe quiero mГЎs poluciГіn

                            E5
AcГЎ las olas y el mar te pueden matar
     B5                E5
Esto es extremo de verdad
       B5                        E5  F#5
EscatolГіgicamente no hay nada mejor
              A5                    E5
En el soretero la vida es color marrГіn

E5 p.m.            D5           A5               E5
San Clemente deprimente, Villa Gesell “Rolling Stone”
E5 p.m.           D5           A5               E5
Vacaciones en la costa con mi tabla de telgopor

                            E5
AcГЎ las olas y el mar te pueden matar
     B5                E5
Esto es extremo de verdad
       B5                        E5  F#5
EscatolГіgicamente no hay nada mejor
              A5                    E5
En el soretero la vida es color marrГіn

E5 - D5 - C#5 вЂ" D5 - A5 (x3) - Punteo 1 (x2) - Punteo 2 - Punteo 3 (x3)

                             E5
AcГЎ las olas y el mar te pueden matar
     B5                E5
Esto es extremo de verdad
                            E5          F#5
AcГЎ las olas y el mar te pueden matar
              A5                  E5    D5         F#5
En el soretero yo me siento en Hawai, imaginando
                 A5                 E5    D5       F#5
Yo me vuelvo loco y me siento en Hawai, imaginando
             A5                    E5 (*)
En el sortero la vida es color marrГіn

Punteo 1
   f#5                 A5                    E5 D5
E|------------------------------------------------------|
B|------------------------------------------------------|
G|------------------------------------------------------|
D|-7-7-7-7-7-7-7-6-----7-7-7-7-7-7-7-6-------9--7-6-----|
A|-----------------7-9-----------------7-9-7--------7-9-|
e|------------------------------------------------------|

Punteo 2
   F#5             A5
E|-----------------------------------------------|
B|-----------------------------------------------|
G|-6-6-6-6-6-6-4-2-4-6-6-6-6-4-2-4-6-6-6-6-6-4-2-|
D|-----------------------------------------------|
A|-----------------------------------------------|
e|-----------------------------------------------|

Punteo 3
   E5 E5 E5 E5 D5 D5 A5 D5
E|------------------------|
B|-5b-5b-5b-5b------------|
G|-------------7вЂ"-5--4--5-|
D|------------------------|
A|------------------------|
e|------------------------|


Добавлено: 15.08.2013
Другие материалы по этой песне:
  • Аккорды и текст

Страница создана 08.04.2012
http://primanota.ru/attaque-77/surfeando-en-el-soretero-chords.htm
Привет, Гость.
Предлагаем пройти революционный курс по гитаре.
Подарок от PrimaNota.Ru, забирай!