PrimaNota.ru - самый крупный в мире бесплатный архив песенных текстов, аккордов, табулатур и нот


Attaque 77 - Soy De Attaque - таба, видео

Регистрация Запомнить меня
Войти через:  Facebook Google Twitter Vk Yandex Mail.ru

Attaque 77 - Soy De Attaque - таба, видео

Печатать
Просмотров: 23
soy de attaque



attaque 77



varios 22 12 03



TRANSCRIBED BY RUDY GUZMAN



guzman_84@hotmail.com



ole ole ole ole ole ole ola
e:----------------------------------------|
B:----------------------------------------|
G:-7--------------------------------------|
D:-7------------------------7-------------|
A:-5------------------------7-------------|
E:--------------------------5-------------|

ole ole ole cada dia te quiero mas
e:----------------------------------------|
B:----------------------------------------|
G:-7--------------------------------------|
D:-7------------------------7-------------|
A:-5------------------------7-------------|
E:--------------------------5-------------|

yo soy de attaque
e:----------------------------------------|
B:----------------------------------------|
G:-7--------------------------------------|
D:-7------------------------7-------------|
A:-5------------------------7-------------|
E:--------------------------5-------------|

es un sentimiento no puedo parar
e:-----------------------------------------------------|
B:-----------------------------------------------------|
G:-----------------------------------------------------|
D:-5-------------------------7-------------------------|
A:-5-------------------------7-------------------------|
E:-3-------------------------5-------------------------|



ole ole ole
ole ole ole ola
ole ole ole
cada dia te quiero mas
yo soy de attaque
e:----------------------------------------------------|
B:----------------------------------------------------|
G:-7-7-7-7-7-7-7-7-7-7-7-7----------------------------|
D:-7-7-7-7-7-7-7-7-7-7-7-7--7-7-7-7-7-7-7-7-7-7-7-7-7-|
A:-5-5-5-5-5-5-5-5-5-5-5-5--7-7-7-7-7-7-7-7-7-7-7-7-7-|
E:--------------------------5-5-5-5-5-5-5-5-5-5-5-5-5-|

es un sentimiento no puedo parar
e:-----------------------------------------------------|
B:-----------------------------------------------------|
G:-----------------------------------------------------|
D:-5-5-5-5-5-5-5-5-5-5-5-5---7-7-7-7-7-7-7-7-7-7-7-7-7-|
A:-5-5-5-5-5-5-5-5-5-5-5-5---7-7-7-7-7-7-7-7-7-7-7-7-7-|
E:-3-3-3-3-3-3-3-3-3-3-3-3---5-5-5-5-5-5-5-5-5-5-5-5-5-|

e:------------------------|
B:------------------------|
G:-7----------------------|
D:-7----------------------|
A:-5----------------------|
E:------------------------|

no olvidamos no perdonamos no nos reconciliamos
el david compañero desaparecidos presente
el david compañero desaparecidos presente
el david compañero desaparecidos presente
ahora y siempre
ahora y siempre

hillo son mex

2003
Добавлено: 20.04.2016
Другие материалы по этой песне:
  • Аккорды и текст

Страница создана 20.04.2016
http://primanota.ru/attaque-77/soy-de-attaque-chords.htm
Привет, Гость.
Предлагаем пройти революционный курс по гитаре.
Подарок от PrimaNota.Ru, забирай!