PrimaNota.ru - самый крупный в мире бесплатный архив песенных текстов, аккордов, табулатур и нот


Attaque 77 - Ska Del Exodo - бас-таба, видео

Регистрация Запомнить меня
Войти через:  Facebook Google Twitter Vk Yandex Mail.ru

Attaque 77 - Ska Del Exodo - бас-таба, видео

Печатать
Просмотров: 249
Уроки эстрадного вокала в Санкт-Петербурге
+++++++++++++++++++++++++++++
| Attaque 77- Ska Del Exodo |
+++++++++++++++++++++++++++++


"No llores por mi Argentina..."


Tuning: EADG




Intro
1.
G|-------2-3-2---------------------------2-3-2---------------------|
D|---2-5-------5-2-------2-5-2-------2-5-------5-2-------2-5-2-----|
A|-3-----------------2-5-------5-2-3-----------------2-5-------5-2-|
E|-----------------3-------------------------------3---------------|

2.
G|-----------5h7-5-7-------------------|
D|---4-7-4-----------------------------|
A|-5-------5-------------3-3-----------|
E|-------------------3-3-----3x--------|

Verse
"Voy a dejarte atrás..."
3.
G|-------------------------------------------------------------------------------------|
D|------------------------------------------------------2-5-2---2-5-2------------------|
A|---2-5-2---2-5-25---2-5-2---2-5-25---2-5-2---2-3-45-3-------3------3---2-5-2---2-3-4-|
E|-3-------3--------3-------3--------3-------3-------------------------3-------3-------|

"Viviendo en la opresión..."
4.
G|---------------------------------------------------------------------------------------|
D|---77---7---77-4-----2-5-2-1-5-1---------------------77---7---77-4---------------------|
A|-5----5---5------5-3-------------3---2-5-2---2-3-4-5----5---5------5-----3-3-----------|
E|-----------------------------------3-------3-------------------------3-3-----3x--------|

Chorus
"Ska del exodo..."
5.
G|-------2-3-2---------------------------2-3-2---------------------|
D|---2-5-------5-2-------2-5-2-------2-5-------5-2-------2-5-2-----|
A|-3-----------------2-5-------5-2-3-----------------2-5-------5-2-|
E|-----------------3-------------------------------3---------------|

"Y usted y yo somos culpables..."
6.
G|-----------5h7-5-7-------------------|
D|---4-7-4-----------------------------|
A|-5-------5-------------3-3-----------|
E|-------------------3-3-----3x--------|

Verse
"Voy a llevarte aquí..."
7.
G|-------------------------------------------------------------------------------------|
D|------------------------------------------------------2-5-2---2-5-2------------------|
A|---2-5-2---2-5-25---2-5-2---2-5-25---2-5-2---2-3-45-3-------3------3---2-5-2---2-3-4-|
E|-3-------3--------3-------3--------3-------3-------------------------3-------3-------|

"Viviendo en la opresión..."
8.
G|---------------------------------------------------------------------------------------|
D|---77---7---77-4-----2-5-2-1-5-1---------------------77---7---77-4---------------------|
A|-5----5---5------5-3-------------3---2-5-2---2-3-4-5----5---5------5-----3-3-----------|
E|-----------------------------------3-------3-------------------------3-3-----3x--------|

Chorus
"Ska del exodo..."
9.
G|-------2-3-2---------------------------2-3-2---------------------|
D|---2-5-------5-2-------2-5-2-------2-5-------5-2-------2-5-2-----|
A|-3-----------------2-5-------5-2-3-----------------2-5-------5-2-|
E|-----------------3-------------------------------3---------------|

"Y usted y yo somos culpables..."
10.
G|-----------5h7-5-7-------------------|
D|---4-7-4-----------------------------|
A|-5-------5-------------3-3-----------|
E|-------------------3-3-----3x--------|

Bridge
"No llores por mi Argentina..."
11.
G|----------------------------------------------------------------------------------------------|
D|--------5---5---------5---5---------4---------5~-9~-------------------------------------------|
A|------------------------------5~--5--------7~---------------55--------5-----5----------3-3----|
E|--3~--3-------3-3~--3-------3----------------------------33----3-------55-5--------3-3-----3x-|

"Voy a dejarte atrás..."
12.
G|------------------------------------------------------------------------|
D|-----------------------------------------757-----757--------------------|
A|-----535-------535-----535-------535----5----5-5------------------------|
E|-3--3----3-3-3--------3----3-3-3---------------------33333333-3x--------|

"Voy a dejarte atrás..."
13.
G|-------------------------------------------------------------------|
D|---------0-2-3-4-5-3-2-0-----------4-7-4---4-7-4-------------------|
A|---2-3-4-----------------3-2-0---5-------5-------------------------|
E|-3-----------------------------3-----------------33333333-33333333-|

Chorus
"Ska del exodo..."
14.
G|-------------------------------------------------------------------------|
D|-------------------45554555-45-------------------------45554555-45554422-|
A|-33333333-33333333--------------0022-33333333-33333333-------------------|
E|------------------------------33-----------------------------------------|

"Y usted y yo somos culpables..."
15.
G|-------------------------------------------------------------------------|
D|-------------------45554555-45-------45554555-45-------------------------|
A|-55555555-55555555------------002233------------002233-55555555-5x-------|
E|-------------------------------------------------------------------------|

16.
G|--------------------------------------------------------|
D|------------556688-45554555-5---------------------------|
A|-33333333-66------------------5-2-----------------------|
E|----------------------------------3~--------------------|

Please rate thanks!!


Lyrics:

Voy a dejarte atrás, voy a dejarte atrás 
Voy a cruzar el ancho río para no volver no aguanto más 
Viviendo en la opresión, me siento enemigo en mi propio país 
Nuestro romance no acabó pero no puedo ya seguir 

Ska del éxodo de un pueblo desechable, 
donde la corrupción resulta excarcelable y usted y yo somos culpables 

Voy a llevarte aquí, voy a llevarte en mí, 
voy a llevarme tu perfume de mujer fatal no aguanto más 
Viviendo en la opresión entre gorilas, si continúo así
voy a morirme joven y sin identidad 

No llores por mi Argentina
me quedo con tu bandera de cielo azul, de mar azul
Que el firmamento iluminado por el sol, brilla donde voy. 
Voy a dejarte atrás, voy a dejarte atrás 
De la orilla de Babilón pronto me iré.

Voy a dejarte atrás, voy a dejarte atrás 
De la orilla de Babilón pronto me iré.



+++++++++++++++++++++++++++++++++
| Raileff                       |
| Underground__Dora@Hotmail.Com |
+++++++++++++++++++++++++++++++++
Добавлено: 26.06.2012
Другие материалы по этой песне:
  • Аккорды и текст

Страница создана 26.06.2012
http://primanota.ru/attaque-77/ska-del-exodo-chords.htm
Привет, Гость.
Предлагаем пройти революционный курс по гитаре.
Подарок от PrimaNota.Ru, забирай!