PrimaNota.ru - самый крупный в мире бесплатный архив песенных текстов, аккордов, табулатур и нот


Attaque 77 - Si Tu Quieres Bailar - таба, видео

Регистрация Запомнить меня
Войти через:  Facebook Google Twitter Vk Yandex Mail.ru

Attaque 77 - Si Tu Quieres Bailar - таба, видео

Печатать
Просмотров: 72
Уроки эстрадного вокала в Санкт-Петербурге
si tu quieres bailar


attaque 77


TRANSCRIBED BY RUDY GUZMAN


guzman_84@hotmail.com

   Si tu quieres bailar toma mi mano
e:-----------------------------------------|
B:-----------------------------------------|
G:-----------------------5-5-5-5-5-5-5-5-5-|
D:-5-5-5-5-5-5-5-5-5-5---5-5-5-5-5-5-5-5-5-|
A:-5-5-5-5-5-5-5-5-5-5---3-3-3-3-3-3-3-3-3-|
E:-3-3-3-3-3-3-3-3-3-3---------------------|

nena dime que yo soy tu amado
e:-----------------------------------------|
B:-----------------------------------------|
G:-----------------------5-5-5-5-5-5-5-5-5-|
D:-5-5-5-5-5-5-5-5-5-5---5-5-5-5-5-5-5-5-5-|
A:-5-5-5-5-5-5-5-5-5-5---3-3-3-3-3-3-3-3-3-|
E:-3-3-3-3-3-3-3-3-3-3---------------------|

    Oh, nena,                quieres tu bailar?
e:---------------------------------------------------------|
B:---------------------------------------------------------|
G:-----------------------7-7-7-7-7-7-7-7-7-----------------|
D:-5-5-5-5-5-5-5-5-5-5---7-7-7-7-7-7-7-7-7---5-5-5-5-5-5-5-|
A:-5-5-5-5-5-5-5-5-5-5---5-5-5-5-5-5-5-5-5---5-5-5-5-5-5-5-|
E:-3-3-3-3-3-3-3-3-3-3-----------------------3-3-3-3-3-3-3-|

Si tu quieres bailar bajo la luna
e:-----------------------------------------|
B:-----------------------------------------|
G:-----------------------5-5-5-5-5-5-5-5-5-|
D:-5-5-5-5-5-5-5-5-5-5---5-5-5-5-5-5-5-5-5-|
A:-5-5-5-5-5-5-5-5-5-5---3-3-3-3-3-3-3-3-3-|
E:-3-3-3-3-3-3-3-3-3-3---------------------|

y no dejes de abrazarme nunca
e:-----------------------------------------|
B:-----------------------------------------|
G:-----------------------5-5-5-5-5-5-5-5-5-|
D:-5-5-5-5-5-5-5-5-5-5---5-5-5-5-5-5-5-5-5-|
A:-5-5-5-5-5-5-5-5-5-5---3-3-3-3-3-3-3-3-3-|
E:-3-3-3-3-3-3-3-3-3-3---------------------|

    Oh, nena,                    quieres tъ bailar?
e:---------------------------------------------------------|
B:---------------------------------------------------------|
G:-----------------------7-7-7-7-7-7-7-7-7-----------------|
D:-5-5-5-5-5-5-5-5-5-5---7-7-7-7-7-7-7-7-7---5-5-5-5-5-5-5-|
A:-5-5-5-5-5-5-5-5-5-5---5-5-5-5-5-5-5-5-5---5-5-5-5-5-5-5-|
E:-3-3-3-3-3-3-3-3-3-3-----------------------3-3-3-3-3-3-3-|


Quieres, quieres, quieres, quieres tъ bailar?
e:-----------------------------------------|
B:-----------------------------------------|
G:-----------------------5-5-5-5-5-5-5-5-5-|
D:-5-5-5-5-5-5-5-5-5-5---5-5-5-5-5-5-5-5-5-|
A:-5-5-5-5-5-5-5-5-5-5---3-3-3-3-3-3-3-3-3-|
E:-3-3-3-3-3-3-3-3-3-3---------------------|

Quieres, quieres, quieres, quieres tъ bailar?
e:-----------------------------------------|
B:-----------------------------------------|
G:-----------------------5-5-5-5-5-5-5-5-5-|
D:-5-5-5-5-5-5-5-5-5-5---5-5-5-5-5-5-5-5-5-|
A:-5-5-5-5-5-5-5-5-5-5---3-3-3-3-3-3-3-3-3-|
E:-3-3-3-3-3-3-3-3-3-3---------------------|

  Quieres, quieres, quieres,         quieres tъ bailar?
e:---------------------------------------------------------|
B:---------------------------------------------------------|
G:-----------------------7-7-7-7-7-7-7-7-7-----------------|
D:-5-5-5-5-5-5-5-5-5-5---7-7-7-7-7-7-7-7-7---5-5-5-5-5-5-5-|
A:-5-5-5-5-5-5-5-5-5-5---5-5-5-5-5-5-5-5-5---5-5-5-5-5-5-5-|
E:-3-3-3-3-3-3-3-3-3-3-----------------------3-3-3-3-3-3-3-|


e:---------------------|
B:---------------------|
G:-6/7-7-7-7-7-7-7-7---|
D:-6/7-7-7-7-7-7-7-7---|
A:-4/5-5-5-5-5-5-5-5---|
E:---------------------|

e:----------------------------------|
B:----------------------------------|
G:-6/7-7-7--6/7-7-7--6/7-7-7--7-7-7-|
D:-6/7-7-7--6/7-7-7--6/7-7-7--7-7-7-|
A:-4/5-5-5--4/5-5-5--4/5-5-5--5-5-5-|
E:----------------------------------|

  Si tu quieres bailar toma mi mano
e:-----------------------------------------|
B:-----------------------------------------|
G:-----------------------5-5-5-5-5-5-5-5-5-|
D:-5-5-5-5-5-5-5-5-5-5---5-5-5-5-5-5-5-5-5-|
A:-5-5-5-5-5-5-5-5-5-5---3-3-3-3-3-3-3-3-3-|
E:-3-3-3-3-3-3-3-3-3-3---------------------|

nena dime que yo soy tu amado
e:-----------------------------------------|
B:-----------------------------------------|
G:-----------------------5-5-5-5-5-5-5-5-5-|
D:-5-5-5-5-5-5-5-5-5-5---5-5-5-5-5-5-5-5-5-|
A:-5-5-5-5-5-5-5-5-5-5---3-3-3-3-3-3-3-3-3-|
E:-3-3-3-3-3-3-3-3-3-3---------------------|

    Oh, nena,                quieres tu bailar?
e:---------------------------------------------------------|
B:---------------------------------------------------------|
G:-----------------------7-7-7-7-7-7-7-7-7-----------------|
D:-5-5-5-5-5-5-5-5-5-5---7-7-7-7-7-7-7-7-7---5-5-5-5-5-5-5-|
A:-5-5-5-5-5-5-5-5-5-5---5-5-5-5-5-5-5-5-5---5-5-5-5-5-5-5-|
E:-3-3-3-3-3-3-3-3-3-3-----------------------3-3-3-3-3-3-3-|

Si tu quieres bailar bajo la luna
e:-----------------------------------------|
B:-----------------------------------------|
G:-----------------------5-5-5-5-5-5-5-5-5-|
D:-5-5-5-5-5-5-5-5-5-5---5-5-5-5-5-5-5-5-5-|
A:-5-5-5-5-5-5-5-5-5-5---3-3-3-3-3-3-3-3-3-|
E:-3-3-3-3-3-3-3-3-3-3---------------------|

y no dejes de abrazarme nunca
e:-----------------------------------------|
B:-----------------------------------------|
G:-----------------------5-5-5-5-5-5-5-5-5-|
D:-5-5-5-5-5-5-5-5-5-5---5-5-5-5-5-5-5-5-5-|
A:-5-5-5-5-5-5-5-5-5-5---3-3-3-3-3-3-3-3-3-|
E:-3-3-3-3-3-3-3-3-3-3---------------------|

    Oh, nena,                    quieres tъ bailar?
e:---------------------------------------------------------------|
B:---------------------------------------------------------------|
G:-----------------------7-7-7-7-7-7-7-7-7-----------------------|
D:-5-5-5-5-5-5-5-5-5-5---7-7-7-7-7-7-7-7-7---5-5-5-5-5-5-5-------|
A:-5-5-5-5-5-5-5-5-5-5---5-5-5-5-5-5-5-5-5---5-5-5-5-5-5-5-------|
E:-3-3-3-3-3-3-3-3-3-3-----------------------3-3-3-3-3-3-3---17/-|


Quieres, quieres, quieres, quieres tъ bailar?
e:-----------------------------------------|
B:-----------------------------------------|
G:-----------------------5-5-5-5-5-5-5-5-5-|
D:-5-5-5-5-5-5-5-5-5-5---5-5-5-5-5-5-5-5-5-|
A:-5-5-5-5-5-5-5-5-5-5---3-3-3-3-3-3-3-3-3-|
E:-3-3-3-3-3-3-3-3-3-3---------------------|

Quieres, quieres, quieres, quieres tъ bailar?
e:-----------------------------------------|
B:-----------------------------------------|
G:-----------------------5-5-5-5-5-5-5-5-5-|
D:-5-5-5-5-5-5-5-5-5-5---5-5-5-5-5-5-5-5-5-|
A:-5-5-5-5-5-5-5-5-5-5---3-3-3-3-3-3-3-3-3-|
E:-3-3-3-3-3-3-3-3-3-3---------------------|

  Quieres, quieres, quieres,         quieres tъ bailar?
e:---------------------------------------------------------|
B:---------------------------------------------------------|
G:-----------------------7-7-7-7-7-7-7-7-7-----------------|
D:-5-5-5-5-5-5-5-5-5-5---7-7-7-7-7-7-7-7-7---5-5-5-5-5-5-5-|
A:-5-5-5-5-5-5-5-5-5-5---5-5-5-5-5-5-5-5-5---5-5-5-5-5-5-5-|
E:-3-3-3-3-3-3-3-3-3-3-----------------------3-3-3-3-3-3-3-|


e:---------------------|
B:---------------------|
G:-6/7-7-7-7-7-7-7-7---|
D:-6/7-7-7-7-7-7-7-7---|
A:-4/5-5-5-5-5-5-5-5---|
E:---------------------|

e:----------------------------------|
B:----------------------------------|
G:-6/7-7-7--6/7-7-7--6/7-7-7--7-7-7-|
D:-6/7-7-7--6/7-7-7--6/7-7-7--7-7-7-|
A:-4/5-5-5--4/5-5-5--4/5-5-5--5-5-5-|
E:----------------------------------|

:------10-10-----10-10------10-10-----10-10-----10-10------10-10--|
:------10-10-----10-10------10-10-----10-10-----10-10------10-10--|
:--12b-------12b--------12b-------12b-------12b--------12b--------|
:-----------------------------------------------------------------|
:-----------------------------------------------------------------|
:-----------------------------------------------------------------|

Quieres, quieres, quieres, quieres tъ bailar?
e:-----------------------------------------|
B:-----------------------------------------|
G:-----------------------5-5-5-5-5-5-5-5-5-|
D:-5-5-5-5-5-5-5-5-5-5---5-5-5-5-5-5-5-5-5-|
A:-5-5-5-5-5-5-5-5-5-5---3-3-3-3-3-3-3-3-3-|
E:-3-3-3-3-3-3-3-3-3-3---------------------|

Quieres, quieres, quieres, quieres tъ bailar?
e:-----------------------------------------|
B:-----------------------------------------|
G:-----------------------5-5-5-5-5-5-5-5-5-|
D:-5-5-5-5-5-5-5-5-5-5---5-5-5-5-5-5-5-5-5-|
A:-5-5-5-5-5-5-5-5-5-5---3-3-3-3-3-3-3-3-3-|
E:-3-3-3-3-3-3-3-3-3-3---------------------|

  Quieres, quieres, quieres,         quieres tъ bailar?
e:---------------------------------------------------------|
B:---------------------------------------------------------|
G:-----------------------7-7-7-7-7-7-7-7-7-----------------|
D:-5-5-5-5-5-5-5-5-5-5---7-7-7-7-7-7-7-7-7---5-5-5-5-5-5-5-|
A:-5-5-5-5-5-5-5-5-5-5---5-5-5-5-5-5-5-5-5---5-5-5-5-5-5-5-|
E:-3-3-3-3-3-3-3-3-3-3-----------------------3-3-3-3-3-3-3-|

Quieres, quieres, quieres, quieres tъ bailar?
e:-----------------------------------------|
B:-----------------------------------------|
G:-----------------------5-5-5-5-5-5-5-5-5-|
D:-5-5-5-5-5-5-5-5-5-5---5-5-5-5-5-5-5-5-5-|
A:-5-5-5-5-5-5-5-5-5-5---3-3-3-3-3-3-3-3-3-|
E:-3-3-3-3-3-3-3-3-3-3---------------------|

Quieres, quieres, quieres, quieres tъ bailar?
e:-----------------------------------------|
B:-----------------------------------------|
G:-----------------------5-5-5-5-5-5-5-5-5-|
D:-5-5-5-5-5-5-5-5-5-5---5-5-5-5-5-5-5-5-5-|
A:-5-5-5-5-5-5-5-5-5-5---3-3-3-3-3-3-3-3-3-|
E:-3-3-3-3-3-3-3-3-3-3---------------------|

  Quieres, quieres, quieres,         quieres tъ bailar?
e:---------------------------------------------------------|
B:---------------------------------------------------------|
G:-----------------------7-7-7-7-7-7-7-7-7-----------------|
D:-5-5-5-5-5-5-5-5-5-5---7-7-7-7-7-7-7-7-7---5-5-5-5-5-5-5-|
A:-5-5-5-5-5-5-5-5-5-5---5-5-5-5-5-5-5-5-5---5-5-5-5-5-5-5-|
E:-3-3-3-3-3-3-3-3-3-3-----------------------3-3-3-3-3-3-3-|

e:---------------------|
B:---------------------|
G:-6/7-7-7-7-7-7-7-7---|
D:-6/7-7-7-7-7-7-7-7---|
A:-4/5-5-5-5-5-5-5-5---|
E:---------------------|

e:----------------------------------|
B:----------------------------------|
G:-6/7-7-7--6/7-7-7--6/7-7-7--7-7-7-|
D:-6/7-7-7--6/7-7-7--6/7-7-7--7-7-7-|
A:-4/5-5-5--4/5-5-5--4/5-5-5--5-5-5-|
E:----------------------------------|


e:------------------------|
B:------------------------|
G:------------------------|
D:-5/---------------------|
A:-5/---------------------|
E:-3/---------------------|


hillo son mex

2003
Добавлено: 20.04.2016
Вам также может быть интересно:
Другие материалы по этой песне:
  • Аккорды и текст

Страница создана 20.04.2016
http://primanota.ru/attaque-77/si-tu-quieres-bailar-chords.htm
Привет, Гость.
Предлагаем пройти революционный курс по гитаре.
Подарок от PrimaNota.Ru, забирай!