PrimaNota.ru - самый крупный в мире бесплатный архив песенных текстов, аккордов, табулатур и нот


Attaque 77 - Plaza De Perros - таба, видео

Регистрация Запомнить меня
Войти через:  Facebook Google Twitter Vk Yandex Mail.ru

Attaque 77 - Plaza De Perros - таба, видео

Печатать
Просмотров: 118
Intro:


1--0-0-0-0-0-0-0-0-0-0-0-0-0-0-0-0-0-0-0-0-0-0-0--|
2--5-5-5-4-4-5-5-5-5-5-5-4-4-5-5-5-5-5-5-4-4-5-5--|
3-------------------------------------------------|
4-------------------------------------------------|
5-------------------------------------------------|
6-------------------------------------------------|

   E         A                 C#
1--0-0-0-0-0-0-0-0-0-0-0-0-0-0-0-0-0-0-0-0-0-0-0--|
2--5-5-5-4-4-5-5-5-5-5-5-4-4-5-5-5-5-5-5-4-4-5-5--|
3-------------------------------------------------|   x2
4-------------------------------------------------|
5-------------------------------------------------|
6-------------------------------------------------|


E         A       C#       E         A       C#
voy a la plaza de perros, voy a despejarme espero
D                A   F#          B              A
el dia en la ciudad   fue un infierno y la verdad
        E          F#
pesa mucho tanta sociedad
E            A     C#      E       A          C#
Voy a la plaza de perros, voy a reencontrarme creo
D                  A    F#        B          A
ya los puedo escuchar, los niños rien al jugar.
       E             F#
y me vuelo de esta realidad.
D                        A
Bien lejos, donde ayer fui niño tambien,
F#                           C#           B
no es inmadurez, es que creciendo, la inocencia se va


   E         A                 C#
1--0-0-0-0-0-0-0-0-0-0-0-0-0-0-0-0-0-0-0-0-0-0-0--|
2--5-5-5-4-4-5-5-5-5-5-5-4-4-5-5-5-5-5-5-4-4-5-5--|
3-------------------------------------------------|
4-------------------------------------------------|
5-------------------------------------------------|
6-------------------------------------------------|


E          A       C#      E          A        C#
Voy a la plaza de perros, Voy para verte de nuevo
D              A    F#          B           A
ahi donde una vez,   me prometiste eternidad.
      E             F#
Y juramos nunca mas pelear.
D                     A                   F#
Mi vista se nublo, lleno de emocion, y me senti feliz
          C#             B
cuando dijiste...soy tu karma.


Solo:

    D           A          F#            C#
1--------------------------------------------|
2--------------------------------------------|
3-----------------------------6-6---6-4------|
4---4-4-6-7-6-4-7-----------7-----------7-6--| X2
5-----------------7-7---7-7------------------|
6--------------------------------------------|

     B
1------------------------------------------|
2------------------------------------------|
3-------4-------4--6-6-8-------------------|
4---6-7---4-6-7----------------------------|
5------------------------------------------|
6------------------------------------------|


D                A   F#          B              A
el dia en la ciudad   fue un infierno y la verdad
        E           F#
pesa mucho tanta sociedad
    D                   A                 E
Ya se largo a llover, pronto corramos a casa
Добавлено: 03.03.2012
Другие материалы по этой песне:
  • Аккорды и текст

Страница создана 03.03.2012
http://primanota.ru/attaque-77/plaza-de-perros-chords.htm
Привет, Гость.
Предлагаем пройти революционный курс по гитаре.
Подарок от PrimaNota.Ru, забирай!