PrimaNota.ru - самый крупный в мире бесплатный архив песенных текстов, аккордов, табулатур и нот


Attaque 77 - No Te Pudiste Aguantar - таба, видео

Регистрация Запомнить меня
Войти через:  Facebook Google Twitter Vk Yandex Mail.ru

Attaque 77 - No Te Pudiste Aguantar - таба, видео

Печатать
Просмотров: 121
Intro:


e|-------------------------------------------------------------------|
B|-------------------------------------------------------------------|
G|-------------------------------------------------------------------|
D|------------------------------------------------0-2----------------|
A|------------------------------------2-2-2-2-2-2--------------------|
E|--2-2-2-2-2-2-2-2--5-5-5-5-5-5-5-5-------------------2-2-2-2-2-2---|



E          F#m         D              E
Las cosas son simples, o estas conmigo o te vas.
                   F#m        D                 E
Las cosas son muy simples, o estas conmigo o te vas.


    C#m        E          D        x 2   

e|---------------------------------------|
B|---------------------------------------|
G|------6-6---------8-8--------7-7-------|
D|--6-6-----6---8-8----8---7-7-----7-----|
A|---------------------------------------|
E|---------------------------------------|


   E                F#m
Yo no voy a morirme por perderte,
        D                   E
unas cuantas botellas y ya te olvide
                   F#m
y no voy a morirme por tu amor,
    D              E
un par de cervezas y se acabo.
E   D   F#m     E
AH, AH, OH, OH, OH, OH, OH (BIS)
A                             D   E  A
Siempre crei que estabamos bien
                D
pero ahora veo que...
    F#m         E
no te pudiste aguantar
       D               F#m          E
porque sos muy sucia y no te pudiste aguantar.
D      E               A
Casi vendo mi alma al diablo
D       E            A
para darte el mundo entero,
D          E            A
y ahora todo ya se ha terminado
      D    E
que pena, nena,
        A          D   E
Aun te quiero x  4



    C#m        E          D        x 2   

e|---------------------------------------|
B|---------------------------------------|
G|------6-6---------8-8--------7-7-------|
D|--6-6-----6---8-8----8---7-7-----7-----|
A|---------------------------------------|
E|---------------------------------------|

         C#m        C#m          C#m


|----------------------------------------|
|----------------------------------------|
|--------6-6---------6-6---------6-6-----|
|----6-6-----6---6-6-----6---6-6-----6---|
|----------------------------------------|
|----------------------------------------|


A                          D    A
Siempre crei que estabamos bien
                D
pero ahora veo que...
    F#m         E
no te pudiste aguantar
        D            F#m               E
porque sos muy puta y no te pudiste aguantar.
D     E            A
Bueno, no queria decirtelo,
D      E          A
pero todo este tiempo
D     E            A
yo estuve con tu mejor amiga,
    D       E
que pena, nena.
           A       D   E
Aun te quiero x 4
Добавлено: 26.03.2012
Другие материалы по этой песне:
  • Аккорды и текст

Страница создана 26.03.2012
http://primanota.ru/attaque-77/no-te-pudiste-aguantar-chords.htm
Привет, Гость.
Предлагаем пройти революционный курс по гитаре.
Подарок от PrimaNota.Ru, забирай!