PrimaNota.ru - самый крупный в мире бесплатный архив песенных текстов, аккордов, табулатур и нот


Attaque 77 - La Gente Que Habla Sola - таба, видео

Регистрация Запомнить меня
Войти через:  Facebook Google Twitter Vk Yandex Mail.ru

Attaque 77 - La Gente Que Habla Sola - таба, видео

Печатать
Просмотров: 113
Artista:Attaque 77
Cancion:La Gente Que Habla Sola
Album:Antihumano

Intro/Verso:                           (Acustico)
e|---------------------------------|----1-1-1----|
B|-------0----------0--------------|----1-1-1----|
G|-----0---0------0---0-------2----|----2-2-2----|
D|---2----------2-----------3---3--|----3-3-3----|
A|-3----------3-----------3--------|----3-3-3----|
E|----------------------1----------|----1-1-1----|

Pre Coro:
e|----------------------------------------|
B|----------------------------------------|
G|----------------------------------------|
D|--3-3-3-3--333333----5-5-5-5--555555----|x2
A|--3-3-3-3--333333----5-5-5-5--555555----|
E|--1-1-1-1--111111----3-3-3-3--333333----|

Coro:
e|----------------------------------------------------------------|
B|----------------------------------------------------------------|
G|-555555------------555555------------777777------------777777---|
D|-555555---333333---555555---333333---777777---555555---777777---|
A|-333333---333333---333333---333333---555555---555555---555555---|
E|----------111111------------111111------------333333------------|

Solo: Gtr I (Ciro Pertusi)
e|---------------------------|
B|---------------------------|
G|---555555------------------|
D|---555555---333333---------|
A|---333333---333333---------|
E|------------111111---------|
 
  Gtr II (Mariano Martinez)
e|------------------------------------------------------8-----8------------|
B|--------------------8-------8-----------------8-888-10-10----8-----------|
G|--9--9-9-5---5----9--10-9-10--5--5-7-5-7---9-9------------7^----7-7-5--5-|
D|-----------7---7-----------------------------------------------------7---|
A|-------------------------------------------------------------------------|
E|-------------------------------------------------------------------------|

Outro:
e|-----------------------------------|
B|-----------------------------------|
G|---555555--------------------------|
D|---555555---3-3-333-333-333--------|
A|---333333---3-3-333-333-333--------|
E|------------1-1-111-111-111--------|

Letra:(por aqui se pueden guiar)
Intro

El ansiolito habla con una de tus tantas crisis
y el se marcha mirandote dormir
entre sueños como un flash viste pasar tu vida        
pensando en no volver a amanecer
El se aseguraba no dejar nada a tu alcance
trato de no pensar en el balcon                       VERSO 
y en la calle el viento le pego                       
y fue el pretecto ideal
para disimular, esa tenpestad
de sus ojos estallando en mar

Y en cada barrio,
cada pueblo, cada esquina en la ciudad              PRE-CORO
hay un corazon partido
q no para de sangrar

Laura se ve tan hermosa
tan sensual y tan segura
sola en su casa      
se autoinduce a vomitar
pablo extraña a sus hijitas 
q lo cuidan siempre desde el cielo                      VERSO
dani esta en madrid buscando su identidad
sergio vive en brasil, en una playa tranquila
solitario y feliz, si estubieras hay
solo para ver, para compartir
su alegria inmensa de vivir

Y en cada barrio, cada pueblo, cada esquina en la ciudad         PRE=CORO
hay un corazon partido q no para de sangrar                        

y un ejercito de gente
valvuseando su verdad
de cosas estancadas q quedaron por hablar              
historias de no correspondidos                             CORO
y de amigos q no estan
de gente q habla sola y sus palabras abortadas de
no hablar, no hablar, no hablar, no hablar......

Y en cada barrio, cada pueblo, cada esquina en la ciudad    PRE-CORO
hay un corazon partido q no para de sangrar

  

                                                           SOLO


y un ejercito de gente valvuceando su verdad
de cosas estancadas q quedaron por hablar
historias de no correspondidos                             CORO
y de amigos q no estan
y al menos encontrar un mail q diga
hola como estas

pienso en vos, estes en donde estes....
pienso en vos estes en donde estes.....   OUTRO 
pienso en vos estes en donde estes....    
yo pienso en vos estes en donde esteeeee.....


INTRO



Y eso es
muy facil x)
suerte
Awante la CATOLICA Ctm Los Cruzados
UC
Добавлено: 24.05.2012
Другие материалы по этой песне:
  • Аккорды и текст

Страница создана 24.05.2012
http://primanota.ru/attaque-77/la-gente-que-habla-sola-chords.htm
Привет, Гость.
Предлагаем пройти революционный курс по гитаре.
Подарок от PrimaNota.Ru, забирай!