PrimaNota.ru - самый крупный в мире бесплатный архив песенных текстов, аккордов, табулатур и нот


Attaque 77 - Hacelo Por Mi - аккорды и текст, таба, видео

Регистрация Запомнить меня
Войти через:  Facebook Google Twitter Vk Yandex Mail.ru

Attaque 77 - Hacelo Por Mi - аккорды и текст, таба, видео

Печатать
Просмотров: 173
Hacelo Por Mi
Attaque 77
intro:E-C#m-E-C#m-A-F#m-D-B

E|--------------------------------------------------|
B|--------------------------------------------------|
G|--------------------------------------------------|
D|------------6------------------6------------------|
A|-------2-4--4---7--7--6--6--4--4--7--7--6--6--4---|
E|-0-2-4--------------------------------------------|

E|-----|--------------------------------------------------|
B|-0---|--------------------------------------------------|
G|-1---|--------------------------------------------------|
A|-2---|-------2-4--4---7--7--6--6--4--4--7--7--6--6--4---|
D|-2---|------------6---------------6---------------------| 
E|-0---|-0-2-4--------------------------------------------|

      E                   C#m
yo no se lo que senti esa tarde que te vi
       A
Yo pensaba en otras cosas,
        B
fuiste mucho para mi.

     E       
Yo creia en tus palabras,
     C#m
tu mirada me engaño
      A
Ahora se que no sos mia
     B
la culpa la tuve yo.

        A
Yo no quise lastimarte,
       C#m
jamas tuve esa intencion
         A
fuimos presos de un impulso,
      F#m          B
yo solo buscaba amor.

       E
Cuando te veia en la calle,
      C#m
no podia evitar
          A
que el silencio se adueñara,
       B
me quedaba sin hablar.

        E
Y ahora se que no sos mia
      C#m
la culpa la tuve yo,
       A
si queres podes marcharte,
     B         
solo te pido un favor...

            A
Si aun te queda algo de amor
        C#m
dentro de tu corazon
       A
no me mires a los ojos
        F#m           D          B
que me muero, yo me muero de dolor...
            E
Hacelo Por Mi


      E
Todo eso que senti
      C#m
esa tarde que te vi,
      A  
ahora no tiene sentido,
             B
fue un mal sueño para mi.

         E
Y al pensar en tu mirada,
        C#m
ya no puedo sonreir
        A
si queres podes marcharte,
      B
solo te quiero decir...

            A
Si aun te queda algo de amor
        C#m
dentro de tu corazon
       A
no me mires a los ojos
        F#m           D          B
que me muero, yo me muero de dolor...
            E
Hacelo Por Mi

E-C#m-E-C#m-A-F#m-D-B

E|--------------------------------------------------|
B|-----9--7--9----9--7---------5--4--5----5--4------|
G|-9-9----------9------9---6-6----------6-------6---|
D|--------------------------------------------------| x2
A|--------------------------------------------------|
E|--------------------------------------------------|
Hacelo por MI                     Hacelo por MI

 F#5              B5
 oh, no, no, no, no, no, no,

  A5   B5
 yeah,yeah

E5          A5
Hacelo por mi.
Добавлено: 22.09.2015
Другие материалы по этой песне:

Страница создана 02.03.2012
http://primanota.ru/attaque-77/hacelo-por-mi-chords.htm
Привет, Гость.
Предлагаем пройти революционный курс по гитаре.
Подарок от PrimaNota.Ru, забирай!