PrimaNota.ru - самый крупный в мире бесплатный архив песенных текстов, аккордов, табулатур и нот


Attaque 77 - Chance - аккорды и текст, таба, видео

Регистрация Запомнить меня
Войти через:  Facebook Google Twitter Vk Yandex Mail.ru

Attaque 77 - Chance - аккорды и текст, таба, видео

Печатать
Просмотров: 180
Уроки эстрадного вокала в Санкт-Петербурге
Chance
Attaque 77
Intro

e-12--12--12--12--5--9--12--11------9--11----------------------------------/
B-------------------------------10-----------------------------------------/
G--------------------------------------------------------------------------/
D--------------------------------------------------------------------------/
A--------------------------------------------------------------------------/
E------------------------------------------(11)--(9)-----------------------/


Verso:
E               Bm
Día a día aprendiendo a ser
F#m                 A
Miro hacia atrás y todo el camino hecho
E                  Bm
Lo que pudo ser y lo que fue
F#m            A
Mi oportunidad de comenzar de nuevo
F#m G#m C#m                  A
...Y lo demás   francamente no importa

E                      Bm
Quién fui todo este tiempo no sé
F#m                A
Quién soy o seré, habré cumplido un sueño
E                Bm
Intentando la felicidad
F#m                A
A prueba y error, la vida es un momento
F#m G#m  C#m                 A
...Y lo demás    francamente no importa

Coro:
F#m
Te miro fijo y me sonreís
D
No pierdo un día lejos de ti
A             E
Mi chance es hoy

F#m
Miro tus ojos y me veo ahí
D
Aprovechando cada ocasión
A             E
Mi chance es hoy

Verso:
E                      Bm
Tantas cosas que habré hecho bien
F#m                 A
Tantas que hice mal y que ni ahí me entero
E                   Bm
Cuánto que desperdicié sin ver
F#m                A
Que estuviste ahí conmigo todo el tiempo
F#m     G#m   C#m                A
...Y hoy lo demás francamente no importa

Coro:
F#m
Te miro fijo y me sonreís
D
No pierdo un día lejos de ti
A             E
Mi chance es hoy

F#m
Miro tus ojos y me veo ahí
D
Aprovechando cada ocasión
A             E
Mi chance es hoy

SOLO:

e--------------------------------------------------------------------------/
B--------------------------------------7---7---7---------------------------/
G--9--11--13b--9~~-7--7--9--11b--7~~-6---6---6-----9--9--11b--6~~----------/
D-----------------------------------------------------------------9--7--9~-/
A--------------------------------------------------------------------------/
E--------------------------------------------------------------------------/

e--------------------------------------------------------------------------/
B--------------------------------------7---7---7------------------15-------/
G--9--11--13b--9~~-7--7--9--11b--7~~-6---6---6----14--14--16/18~~----14~---/
D--------------------------------------------------------------------------/
A--------------------------------------------------------------------------/
E--------------------------------------------------------------------------/

e----------------------------/TAB
B----------------------------/TAB
G--11h13p11---7~~~-----------/TAB
D----------------------------/TAB
A----------------------------/TAB
E----------------------------/TAB


F#m     G#m   C#m                A
...Y hoy lo demás francamente no importa...

Coro x3:

F#m
Te miro fijo y me sonreís
D
No pierdo un día lejos de ti
A             E
Mi chance es hoy

F#m
Miro tus ojos y me veo ahí
D
Aprovechando cada ocasión
A             E
Mi chance es hoy.
Добавлено: 22.09.2015
Другие материалы по этой песне:
  • Аккорды и текст

Страница создана 15.03.2012
http://primanota.ru/attaque-77/chance-chords.htm
Привет, Гость.
Предлагаем пройти революционный курс по гитаре.
Подарок от PrimaNota.Ru, забирай!