PrimaNota.ru - самый крупный в мире бесплатный архив песенных текстов, аккордов, табулатур и нот


Attaque 77 - Buenos Aires En Llamas - таба, видео

Регистрация Запомнить меня
Войти через:  Facebook Google Twitter Vk Yandex Mail.ru

Attaque 77 - Buenos Aires En Llamas - таба, видео

Печатать
Просмотров: 137
Artista:Ataque 77
Canción:Buenos Aires en llamas 
Tono:Standart


Intro/verso:
e|---------------------------------------------------------|
b|---------------------------------------------------------|
G|--------------------5-5----------------------------------|
D|----5-5-----3-3-----5-5----------------------------------|
A|----5-5-----3-3-----3-3----------------------------------|
E|----3-3-----1-1------------------------------------------| 

Pre-coro:
e|--------------------------------|------------------------------|
b|--------------------------------|------------------------------|
G|----------55555-----------55555-|--5---------5-----------------|
D|--77777---55555---77777---55555-|--5---------5-----------------|
A|--77777---33333---77777---33333-|--3---------3-----------------|
E|--55555-----------55555---------|------------------------------|


e|---------------------|------------------------------|
b|---------------------|------------------------------|
G|-----------5--5-0----|--55555555555555--------------|
D|-55555555--5--5-0-5~-|--55555555555555-5555555555---|
A|-55555555--3--3-0-5~-|--33333333333333-5555555555---|
E|-33333333---------3~-|-----------------3333333333---|  

Coro:
e|-------------------------------------------------|
b|-------------------------------------------------|
g|-777777---5-5-5-5----------------------555555----|
D|-777777---5-5-5-5--5555555555--777777--555555----|
A|-555555---3-3-3-3--5555555555--777777--333333----|
E|-------------------3333333333--555555------------|


Verso:
e|---------------------------------------------------------|
b|---------------------------------------------------------|
G|--------------------5-5----------------------------------|
D|----5-5-----3-3-----5-5----------------------------------|
A|----5-5-----3-3-----3-3----------------------------------|
E|----3-3-----1-1------------------------------------------| 

Pre-coro:
e|--------------------------------|------------------------------|
b|--------------------------------|------------------------------|
G|----------55555-----------55555-|--5---------5-----------------|
D|--77777---55555---77777---55555-|--5---------5-----------------|
A|--77777---33333---77777---33333-|--3---------3-----------------|
E|--55555-----------55555---------|------------------------------|


e|---------------------|------------------------------|
b|---------------------|------------------------------|
G|-----------5--5-0----|--55555555555555--------------|
D|-55555555--5--5-0-5~-|--55555555555555-5555555555---|
A|-55555555--3--3-0-5~-|--33333333333333-5555555555---|
E|-33333333---------3~-|-----------------3333333333---|  

Coro:
e|-------------------------------------------------------------|------|
b|-------------------------------------------------------------|------|
g|-777777---5-5-5-5----------------------555555----------------|------|
D|-777777---5-5-5-5--5555555555--777777--555555-555555555555---|--x2--|
A|-555555---3-3-3-3--5555555555--777777--333333-555555555555---|------|
E|-------------------3333333333--555555---------333333333333---|------|

Solo:
e|-------------------------|------------------------------------------|
b|----5--8--13-11^-(11)-12-|----5--8--13--12--11--12--15^--11--10--8--|
g|--5----------------------|--5---------------------------------------|
D|-------------------------|------------------------------------------|
A|-------------------------|------------------------------------------|
E|-------------------------|------------------------------------------|
 
e|------------------------------------------------------------|
b|-10-10^--8-8^--7-7^--5-5^--3-3^-----------------------------|
g|---------------------------------5-5^--4-4^--5-4-5-4-2-0----|
D|------------------------------------------------------------|
A|------------------------------------------------------------|
E|------------------------------------------------------------|

Interlude: 

e|------------------------------------------|-----------------------------|
b|------------------------------------------|-----------------------------|
g|-5------5------------------5--5-0---------|--55555555555555-------------|
D|-5------5----55555555------5--5-0-5~------|--55555555555555--5555555555-|
A|-3------3----55555555------3--3-0-5~------|--33333333333333--5555555555-|
E|-------------33333333-------------3~------|------------------3333333333-|

Coro:
e|-------------------------------------------------------------|
b|-------------------------------------------------------------|
g|-777777---5-5-5-5----------------------555555----------------|
D|-777777---5-5-5-5--5555555555--777777--555555-555555555555---|
A|-555555---3-3-3-3--5555555555--777777--333333-555555555555---|
E|-------------------3333333333--555555---------333333333333---|

Riff Final:(no 100% segxro)
e|----------------------------------------|
b|----------------------------------------|
g|----------------------------------------|
D|--5-5-5---5-5-5---5-5--3~----3----------|
A|--5-5-5---5-5-5---5-5--3~----5----------|
E|--3-3-3---3-3-3---3-3--1~----3----------|

Eso es no mas....
Awante la Cato y toos Los Crnzados...
Ceatolei.!
Awante A77aque..
Добавлено: 14.03.2012
Другие материалы по этой песне:

Страница создана 14.03.2012
http://primanota.ru/attaque-77/buenos-aires-en-llamas-chords.htm
Привет, Гость.
Предлагаем пройти революционный курс по гитаре.
Подарок от PrimaNota.Ru, забирай!