PrimaNota.ru - самый крупный в мире бесплатный архив песенных текстов, аккордов, табулатур и нот


Attack In Black - True Friends - таба, видео

Регистрация Запомнить меня
Войти через:  Facebook Google Twitter Vk Yandex Mail.ru

Attack In Black - True Friends - таба, видео

Печатать
Просмотров: 129
this is a great song, there were no tabs out there so i decided to make it myself. it 
hard to hear in the version i have so i tried my best. hope u like it and if u have any 
or concerns contact me at boarderx8@msn.com thanks

intro

e-------------------------------------------------------------|
B-------------------------------------------------------------|
G-----------------------------11-11-11-11-11/13-13-13-13-13---|
D---6-x-x-x-x-6--6-6--8h9-----11-11-11-11-11/13-13-13-13-13---|x4
A---6-x-x-x-x-6--6-6------9-6/9--9--9--9--9-/11-11-11-11-11---|
D---6-x-x-x-x-6--6-6------------------------------------------|

on second time of that do this:

e-------------------------------------------------------------|
B-------------------------------------------------------------|
G-----------------------------11-11-11-11-11--4-4-4-4-4-4-4---|
D---6-x-x-x-x-6--6-6--8h9-----11-11-11-11-11--4-4-4-4-4-4-4---|
A---6-x-x-x-x-6--6-6------9-6/9--9--9--9--9---4-4-4-4-4-4-4---|
D---6-x-x-x-x-6--6-6------------------------------------------|

and on the last time do this:

e-------------------------------------|
B-------------------------------------|
G-------------------------------------|
D---6-x-x-x-x-6--6-6--8h9-------------|
A---6-x-x-x-x-6--6-6------9-6-6-7\4---|
D---6-x-x-x-x-6--6-6------------------|

Then it goes into the verse like this:

e------------------------------------------------------|
B------------------------------------------------------|
G------------------------------------------------------|
D---6-6-6-6-6-6-6-6-6-6-6-6-6-6-9-9-9-9-9-4-4-4-4-4----|
A---6-6-6-6-6-6-6-6-6-6-6-6-6-6-9-9-9-9-9-4-4-4-4-4----|
D---6-6-6-6-6-6-6-6-6-6-6-6-6-6-9-9-9-9-9-4-4-4-4-4----|
        . . . . . . . . . . . .      . . .     . . .

verse continued:

e------------------------------------------------------------|
B------------------------------------------------------------|
G----------------------------------------------4p3---3-------|x2
D---2-2-2-2-2-2-2-2-2-2-2-2-2-2-2-2-2-2-2-2-2------4---4-----|
A---2-2-2-2-2-2-2-2-2-2-2-2-2-2-2-2-2-2-2-2-2-------------6--|
D---2-2-2-2-2-2-2-2-2-2-2-2-2-2-2-2-2-2-2-2-2----------------|
        . . . . . . . . . . . .     . . . . .

second part of verse:

e------------------------------------------------------|
B------------------------------------------------------|
G------------------------------------------------------|
D---4-4-4-4-4-4-4-4-4-4-4-4-4-4-6-6-6-6-6-1-1-1-1-1----|
A---4-4-4-4-4-4-4-4-4-4-4-4-4-4-6-6-6-6-6-1-1-1-1-1----|
D---4-4-4-4-4-4-4-4-4-4-4-4-4-4-6-6-6-6-6-1-1-1-1-1----|
        . . . . . . . . . . . .      . . .     . . .

second part of verse continued:

e--------------------------------------------------------------------|
B---------------------------------4------------------------4---------|
G-------------------------------------6------------------------6-----|
D---2-2-2-2-2-2-2-2-2-2-2-2-2-2-6---4---4--2-2-2-2-2-2-2-6---4---4---|
A---2-2-2-2-2-2-2-2-2-2-2-2-2-2------------2-2-2-2-2-2-2-------------|
D---2-2-2-2-2-2-2-2-2-2-2-2-2-2------------2-2-2-2-2-2-2-------------|
        . . . . . . . . . . . .                . . . . .

that is played two times but on second time instead of ending on this:

e-------------|
B-----4-------|
G---------6---|
D---6---4---4-|
A-------------|
D-------------|

end on this:

e-----------------------------|
B-----------------------------|
G-----------------------------|
D---2-2-2-2-2-2-2-2-2-2-2-2---|
A---2-2-2-2-2-2-2-2-2-2-2-2---|
D---2-2-2-2-2-2-2-2-2-2-2-2---|

Chorus:

e---------------------------------|
B---------------------------------|
G---------11-9--------11-11/-13---|
D---6-6-9-11-9--6-6-9-11-11/-13---|x2
A---6-6-9-9--7--6-6-9-9--9-/-11---|
D---6-6-9-------6-6-9-------------|

verse again:

e------------------------------------------------------|
B------------------------------------------------------|
G------------------------------------------------------|
D---6-6-6-6-6-6-6-6-6-6-6-6-6-6-9-9-9-9-9-4-4-4-4-4----|
A---6-6-6-6-6-6-6-6-6-6-6-6-6-6-9-9-9-9-9-4-4-4-4-4----|
D---6-6-6-6-6-6-6-6-6-6-6-6-6-6-9-9-9-9-9-4-4-4-4-4----|
        . . . . . . . . . . . .      . . .     . . .

verse continued:

e------------------------------------------------------------|
B------------------------------------------------------------|
G----------------------------------------------4p3---3-------|x2
D---2-2-2-2-2-2-2-2-2-2-2-2-2-2-2-2-2-2-2-2-2------4---4-----|
A---2-2-2-2-2-2-2-2-2-2-2-2-2-2-2-2-2-2-2-2-2-------------6--|
D---2-2-2-2-2-2-2-2-2-2-2-2-2-2-2-2-2-2-2-2-2----------------|
        . . . . . . . . . . . .     . . . . .

second part of verse:

e------------------------------------------------------|
B------------------------------------------------------|
G------------------------------------------------------|
D---4-4-4-4-4-4-4-4-4-4-4-4-4-4-6-6-6-6-6-1-1-1-1-1----|
A---4-4-4-4-4-4-4-4-4-4-4-4-4-4-6-6-6-6-6-1-1-1-1-1----|
D---4-4-4-4-4-4-4-4-4-4-4-4-4-4-6-6-6-6-6-1-1-1-1-1----|
        . . . . . . . . . . . .      . . .     . . .

second part of verse continued:

e--------------------------------------------------------------------|
B---------------------------------4------------------------4---------|
G-------------------------------------6------------------------6-----|
D---2-2-2-2-2-2-2-2-2-2-2-2-2-2-6---4---4--2-2-2-2-2-2-2-6---4---4---|
A---2-2-2-2-2-2-2-2-2-2-2-2-2-2------------2-2-2-2-2-2-2-------------|
D---2-2-2-2-2-2-2-2-2-2-2-2-2-2------------2-2-2-2-2-2-2-------------|
        . . . . . . . . . . . .                . . . . .

that is played two times but on second time instead of ending on this:

e-------------|
B-----4-------|
G---------6---|
D---6---4---4-|
A-------------|
D-------------|

end on this:

e-----------------------------|
B-----------------------------|
G-----------------------------|
D---2-2-2-2-2-2-2-2-2-2-2-2---|
A---2-2-2-2-2-2-2-2-2-2-2-2---|
D---2-2-2-2-2-2-2-2-2-2-2-2---|

chorus again:

e---------------------------------|
B---------------------------------|
G---------11-9--------11-11/-13---|
D---6-6-9-11-9--6-6-9-11-11/-13---|x2
A---6-6-9-9--7--6-6-9-9--9-/-11---|
D---6-6-9-------6-6-9-------------|

intro again:

intro

e-------------------------------------------------------------|
B-------------------------------------------------------------|
G-----------------------------11-11-11-11-11/13-13-13-13-13---|
D---6-x-x-x-x-6--6-6--8h9-----11-11-11-11-11/13-13-13-13-13---|x4
A---6-x-x-x-x-6--6-6------9-6/9--9--9--9--9-/11-11-11-11-11---|
D---6-x-x-x-x-6--6-6------------------------------------------|

on second time of that do this:

e-------------------------------------------------------------|
B-------------------------------------------------------------|
G-----------------------------11-11-11-11-11--4-4-4-4-4-4-4---|
D---6-x-x-x-x-6--6-6--8h9-----11-11-11-11-11--4-4-4-4-4-4-4---|
A---6-x-x-x-x-6--6-6------9-6/9--9--9--9--9---4-4-4-4-4-4-4---|
D---6-x-x-x-x-6--6-6------------------------------------------|

and on the last time do this:

e-------------------------------------|
B-------------------------------------|
G-------------------------------------|
D---6-x-x-x-x-6--6-6--8h9-------------|
A---6-x-x-x-x-6--6-6------9-6-6-7\4---|
D---6-x-x-x-x-6--6-6------------------|

bridge:

e----------------------------------------|
B----------------------------------------|
G----------------------------------------|
D---6-6--6-6-6--6-6-6--6-6-6--13\4/9\2---| x2
A---6-6--6-6-6--6-6-6--6-6-6--13\4/9\2---|
D---6-6--6-6-6--6-6-6--6-6-6--13\4/9\2---|

outro:
"true friends don't let this happen..."

e----------------------------------------------------|
B----------------------------------------------------|
G----------------------------------------------------|
D---9-9-9-9-9--6-6-6-6-6--4-4-4-4-4--2-2-2-2-2-------| x6
A---9-9-9-9-9--6-6-6-6-6--4-4-4-4-4--2-2-2-2-2-------|
D---9-9-9-9-9--6-6-6-6-6--4-4-4-4-4--2-2-2-2-2-------|

ending chords:

e----------------|
B----------------|
G----------------|
D---6~--9~--2~---|
A---6~--9~--2~---|
D---6~--9~--2~---|


and thats my tab for true friends by attack in black. i hope  this tab was helpful and 
for you and my email is at the top for any questions or concerns, and please rate me.
Добавлено: 24.05.2012
Другие материалы по этой песне:
  • Аккорды и текст

Страница создана 24.05.2012
http://primanota.ru/attack-in-black/true-friends-chords.htm
Привет, Гость.
Предлагаем пройти революционный курс по гитаре.
Подарок от PrimaNota.Ru, забирай!