PrimaNota.ru - самый крупный в мире бесплатный архив песенных текстов, аккордов, табулатур и нот


Attack In Black - Marriage - таба, видео

Регистрация Запомнить меня
Войти через:  Facebook Google Twitter Vk Yandex Mail.ru

Attack In Black - Marriage - таба, видео

Печатать
Просмотров: 151
|-------------------------------------|
|--3h4~--3h4~--4h6-6~--6h8p6~--6h8~---|
|-------------------------------------|     part 1
|-------------------------------------|
|-------------------------------------|
|-------------------------------------|

|--------------------------------------6-6-6-6-6h8p6---|
|--3h4~--3h4~--4h6-6~--6h8p6-6-6-6-6h8-----------------|
|------------------------------------------------------|
|------------------------------------------------------|
|------------------------------------------------------|
|------------------------------------------------------|

|------6-11p10----------6-----6-11p10----------6-----6-11p10------|
|--6h8---------11-8-6h8---6h8---------11-8-6h8---6h8---------11-8-|
|-----------------------------------------------------------------| part
|-----------------------------------------------------------------|  2
|-----------------------------------------------------------------|
|-----------------------------------------------------------------|

|------6---6-6-6-6-6h8--------------------------------------------|
|--6h8---8--------------------------------------------------------|
|-----------------------------------------------------------------|
|-----------------------------------------------------------------|
|-----------------------------------------------------------------|
|-----------------------------------------------------------------|

|------6-11p10----------6-----6-11p10----------6-----6-11p10------|
|--6h8---------11-8-6h8---6h8---------11-8-6h8---6h8---------11-8-|
|-----------------------------------------------------------------|
|-----------------------------------------------------------------|
|-----------------------------------------------------------------|
|-----------------------------------------------------------------|

|------6---6-6-6-6-6h8p6------------------------------------------|
|--6h8---8--------------------------------------------------------|
|-----------------------------------------------------------------|
|-----------------------------------------------------------------|
|-----------------------------------------------------------------|
|-----------------------------------------------------------------|

           if you prefer playing part 2 with stacked tabs   

|----------11p10--------------------------------------------------|
|-------11-------11---------11------------------------------------|
|--9h11-------------11p9h11-----------------------repeat----------|
|-----------------------------------------------------------------|
|-----------------------------------------------------------------|
|-----------------------------------------------------------------|


|-----------------------------------------------------------------|
|--------11----11-11-11-11-11h13p11-------------------------------|
|---9h11----11----------------------------------------------------|
|-----------------------------------------------------------------|
|-----------------------------------------------------------------|
|-----------------------------------------------------------------|



i didnt have time to do the stacked part completely but i hope you get the point of it.
please comment or rate...preferably 5....
Добавлено: 04.03.2012
Другие материалы по этой песне:
  • Аккорды и текст

Страница создана 04.03.2012
http://primanota.ru/attack-in-black/marriage-chords.htm
Привет, Гость.
Предлагаем пройти революционный курс по гитаре.
Подарок от PrimaNota.Ru, забирай!