PrimaNota.ru - самый крупный в мире бесплатный архив песенных текстов, аккордов, табулатур и нот


Atrocity - Down Below - текст песни, таба, видео

Регистрация Запомнить меня
Войти через:  Facebook Google Twitter Vk Yandex Mail.ru

Atrocity - Down Below - текст песни, таба, видео

Печатать
Просмотров: 161
ATROCITY - DOWN BELOW
		    From the album "Willenskraft"
	              Copyright Massacre Records
		        Version 2.0 - Jul 2001

Transcribed by: HARIS DURAKOVIC

For Questions, Comments, Newest Version, or Corrections contact
HARIS DURAKOVIC: at foreverlorn@gmx.de


--D O W N  B E L O W--


Riff 1
|-----------------------------------------------------|
|-----------------------------------------------------|
|-------------------------9999------------------------|
|-----------10101010-----------10101010------10101010-|
|-0000-7777----------7777---------------7777----------|
|-----------------------------------------------------|




Riff 2
|-----------------------------------------------------|
|-----------------------------------------------------|
|-------------------------9999------------------------|
|-----------10101010-----------10101010------10101010-|
|-0000-7777----------7777---------------7777----------|
|-----------------------------------------------------|





|-----------------------------------------------------|
|-----------------------------------------------------|
|-------------------------9999------------------------|
|-----------10101010-----------10101010------10101010-|
|------7777----------7777---------------7777----------|
|-4444------------------------------------------------|





|-----------------------------------------------------|
|-----------------------------------------------------|
|-------------------------9999------------------------|
|-----------10101010-----------10101010------10101010-|
|------7777----------7777---------------7777----------|
|-1111------------------------------------------------|





|---------------------------------------------|
|---------------------------------------------|
|------9999-8888------------------------------|
|----------------10101010-9999-7777-6666------|
|----------------------------------------7777-|
|-0000----------------------------------------|





Riff 3
|---------------------------------------------------------------------|
|---------------------------------------------------------------------|
|---------------------------------------------------------------------|
|-9999-101010101010101010101010-99999999999999999999-7777777777777777-|
|---------------------------------------------------------------------|
|---------------------------------------------------------------------|






|------------------|-------------------------------------------------|
|------------------|-------------------------------------------------|
|------------------|--------------------------------7777777777777777-|
|-6666666666666666-|--9999-101010101010101010101010-9999999999999999-|
|------------------|-------------------------------------------------|
|------------------|-------------------------------------------------|






|-----------------------------------|
|-6666666666666666-5555555555555555-|
|-----------------------------------|
|-7777777777777777-6666666666666666-|
|-----------------------------------|
|-----------------------------------|




Riff 4
|-------------------------------------------------------------------------|
|-------------------------------------------------------------------------|
|-------------------------------------------------------------------------|
|-------------------------------------------------------8----8988----8----|
|-6----6766----6----7----6766----6----7----7977----7----6-66-6666-66-6-66-|
|-4-44-4444-44-4-44-3-33-3333-33-3-33-0-00-0000-00-0-00-------------------|
    ..      ..   ..   ..      ..   ..   ..      ..   ..   ..      ..   ..


Riff 5
|------------------------------------------------------------------|
|------------------------------------------------------------------|
|-------------5----5----5----5-----------------5----5----5----5----|
|-6----6/9\6--5----5----5----5-----6----6/9\6--5----5----5----5----|
|-6----6/9\6--3-33-3-33-3-33-3-33--6----6/9\6--3-33-3-33-3-33-3-33-|
|-4-44-4/7\4--3----3----3----3-----4-44-4/7\4--3----3----3----3----|
    ..          ..   ..   ..   ..    ..          ..   ..   ..   ..





|---------------------------------|
|---------------------------------|
|---------------------------------|
|---------------------------------|
|---------------------------------|
|-000-111-444-111-000-111-444-111-|
  ... ... ... ... ... ... ... ...




Rhythm on riff 1 and 3		with this one as ending on riff 3
|-------------------|---|----------------------------------------------|
|-------------------|---|----------------------------------------------|
|-2-----------------|---|-------9999-8888------------------------------|
|-2----6----3-------|-2-|-----------------10101010-9999-7777-6666------|
|-0----7----3-------|-2-|-----------------------------------------7777-|
|------4----1-------|-0-|--0000----------------------------------------|



Listen to the riffs when and how often you have to play them! Have fun!
For corrections or if you have more Atrocity tabs mail me:
foreverlorn@gmx.de
Добавлено: 29.02.2012
Вам также может быть интересно:
Другие материалы по этой песне:
  • Аккорды и текст

Страница создана 29.02.2012
http://primanota.ru/atrocity/down-below-chords.htm
Привет, Гость.
Предлагаем пройти революционный курс по гитаре.
Подарок от PrimaNota.Ru, забирай!