PrimaNota.ru - самый крупный в мире бесплатный архив песенных текстов, аккордов, табулатур и нот


Atrocitor - Sycophant - таба, видео

Регистрация Запомнить меня
Войти через:  Facebook Google Twitter Vk Yandex Mail.ru

Atrocitor - Sycophant - таба, видео

Печатать
Просмотров: 90
-------------------------------------------------------------------------------
                             Atrocitor- sycophant
-------------------------------------------------------------------------------
Tabbed by:
E-mail:

Tuning: D standard


e|---------------------------------------------------------------------------|
B|---------------------------------------------------------------------------|
G|---------------------------------------------------------------------------|
D|------5/3---3~------------5/3----------------------------------------------|  2X
A|3/5---3/1---1~------5/3---3/1---3~-----------------------------------------|
E|1/3-0-----0------00-3/1-0-----0-1~-----------------------------------------|

==============================================================================

e|---------------------------------------------------------------------------|
B|---------------------------------------------------------------------------|
G|---------------------------------------------------------------------------|
D|--------5/3---3-----------------------5/3----------------------------------|
A|3/5-----3/1---1---------------5/3-----3/1---3------------------------------|
E|1/3-0-0-----0---0-0-0-0-0-0-0-3/1-0-0-----0-1-0-0-0-0-0-0-0----------------|

e|---------------------------------------------------------------------------|
B|---------------------------------------------------------------------------|
G|---------------------------------------------------------------------------|
D|--------5/3---3-----------------------5/3----------------------------------|
A|3/5-----3/1---1---------------5/3-----3/1---3-------3----------------------|
E|1/3-0-0-----0---0-0-0-0-0-0-0-3/1-0-0-----0-1-0-00001-01/8~----------------|


==============================================================================

e|---------------------------------------------------------------------------|
B|---------------------------------------------------------------------------|
G|---------------------------------------------------------------------------|
D|------5/3---3----------------------5/3----3--------------------------------|
A|2-----3/1---1--------3--------2----3/1----1-------55/3~--------------------|
E|0-000-----00--0-0000-1-0-1/3~-0-000----00---0-000033/1~--------------------| <<
                                                                               tremlo pick these riffs a bit
e|---------------------------------------------------------------------------| <<
B|---------------------------------------------------------------------------|
G|---------------------------------------------------------------------------|
D|-----5/3---3----------------------5/3----3---------------------------------|
A|2----3/1---1--------3--------2----3/1----1---3--5-4-3~---------------------|
E|0-000----00--0-0000-1-0-1/3~-0-000----00---0-1003-2-1~---------------------|

==============================================================================


e|---------------------------------------------------------------------------|
B|---------------------------------------------------------------------------|
G|---------------------------------------------------------------------------|
D|-------5/3---3-------------------------5/3---3-----------------------------|
A|2------3/1---1---------3--------2------3/1---1-------55/3~-----------------|
E|0-0-000----0---0-0-000-1-001/3~-0-0-000----0---0-000-33/1~-----------------|

e|---------------------------------------------------------------------------|
B|---------------------------------------------------------------------------|
G|---------------------------------------------------------------------------|
D|-------5/3---3-------------------------5/3---3-----------------------------|
A|2------3/1---1---------3--------2------3/1---1------55/3~------------------|
E|0-0-000----0---0-0-000-1-001/3~-0-0-000----0---0-00033/1~------------------|

==============================================================================

e|---------------------------------------------------------------------------|
B|---------------------------------------------------------------------------|
G|---------------------------------------------------------------------------|
D|---------------------------------------------------------------------------|
A|2------2h3---2------3--------2------2h3---2------55/3~---------------------|
E|0-0-0000h1-0-0-0-0001-001/3~-0-0-0000h1-0-0-0-00033/1~---------------------|

e|---------------------------------------------------------------------------|
B|---------------------------------------------------------------------------|
G|---------------------------------------------------------------------------|
D|---------------------------------------------------------------------------|
A|2------2h3---2------3--------2------2h3---2------55/3~-55/3~-5-4-3-3-5-----|
E|0-0-0000h1-0-0-0-0001-001/3~-0-0-0000h1-0-0-0-00033/1~-33/1~-3-2-1-----2---|

==============================================================================

e|--------------------------------------------------------------------------------|
B|--------------------------------------------------------------------------------|
G|--------------------------------------------------------------------------------|    Just slide off
D|3------------3------------------------3------------3------------------------3/0-|  <
Добавлено: 13.12.2015
Другие материалы по этой песне:
  • Аккорды и текст

Страница создана 13.12.2015
http://primanota.ru/atrocitor/sycophant-chords.htm
Привет, Гость.
Предлагаем пройти революционный курс по гитаре.
Подарок от PrimaNota.Ru, забирай!