PrimaNota.ru - самый крупный в мире бесплатный архив песенных текстов, аккордов, табулатур и нот


Atreyu - We Stand Up - текст песни, таба, бас-таба, видео

Регистрация Запомнить меня
Войти через:  Facebook Google Twitter Vk Yandex Mail.ru

Atreyu - We Stand Up - текст песни, таба, бас-таба, видео

Печатать
Просмотров: 203
Уроки эстрадного вокала в Санкт-Петербурге
Atreyu- We Stand Up
A Deathgrip On Yesterday- 2006 Victory
Tuning- Drop C (CGCFAD)

Not 100% accurate on some parts, so help would be appreciated.


FIRST GUITAR

Intro
|---------------------------------------------------|
|---------------------------------------------------|
|----***-----------***------------***--*-*-*--------|(x3)
|-5--555---------5-555---------3--333--3-3-3--4~-1~-|
|-5--555--*-*-*--5-555--*-*-*--3--333--3-3-3--4~-1~-|
|-5--555--5-7-8--5-555--8-7-5--3--333--3-3-3--4~-1~-|
     (x5)           (x5)           (x5) 

Pre-Chorus
|--------------------------------------------------------------------------|
|--------------------------------------------------------------------------|
|-------------------------------15-14-1414-7-------------------------------|
|-10-8--8-5-8-5-8-5-8-5-3-3-3-5-x--x--x-x--x--8-5-8-5--8-5-8-5-3-3-3-5~-7\-|
|-10-8--------------------------13-12-1212-5----------------------------7\-|
|-10-8------------------------------------------------------------------7\-|
 (x16)                                    (x28)                        

Chorus
|-------------------------------------------------------------------------|
|-------------------------------------------------------------------------|
|-------------------------------------------------------------------------|
|-1-11-1-1-4-44-4-4-5-55-5-5-0-00-0-0-1-11-1-1-4-44-4-4-5-55-5-5-5-55-5-5-|
|-1-11-1-1-4-44-4-4-5-55-5-5-0-00-0-0-1-11-1-1-4-44-4-4-5-55-5-5-5-55-5-5-|
|-1-11-1-1-4-44-4-4-5-55-5-5-0-00-0-0-1-11-1-1-4-44-4-4-5-55-5-5-5-55-5-5-|

|---------------------------------------------|
|---------------------------------------------|
|---------------------------------------------|
|-1-11-1-1-4-44-4-4-5-55-5-5-0-00-0-0-111-444-|
|-1-11-1-1-4-44-4-4-5-55-5-5-0-00-0-0-111-444-|
|-1-11-1-1-4-44-4-4-5-55-5-5-0-00-0-0-111-444-|
                                      (x4 each)

Verse
|-----------------------------------|
|-----------------------------------|(the rest of the first guitar intro is
|----***------------***-------------|played by second guitar)
|-5--555---------5--555---------3---|
|-5--555--*-*-*--5--555--*-*-*--3---|
|-5--555--5-7-8--5--555--8-7-5--3---|
                                    
(1st guitar Intro x2)

(Chorus)

Bridge
|-----------------------------------|      |-------------------------------|
|-----------------------------------|      |-------------------------------|
|-----------------------------------|(x3)  |-------------------------------|
|-1~~-3~~-5~~-3~~-1~~-3~~-5~~///8~~-|      |-1~~-3~~---7h8-(x4)\--7h8-(x3)\|
|-1~~-3~~-5~~-3~~-1~~-3~~-5~~///8~~-|      |-1~~-3~~-----------------------|
|-1~~-3~~-5~~-3~~-1~~-3~~-5~~///8~~-|      |-1~~-3~~-----------------------|

(Chorus)

Outro
|-----------------------|
|-----------------------|
|-----------------------|
|-7-8--7-8--7-8--7-8\\\-|
|-----------------------|
|-----------------------|

----------------------------------------------------------------------------

SECOND GUITAR


Intro
|---------------------------------------------------------|
|---------------------------------------------------------|
|---------------------------------------------------------|(x3)
|-3h5-3h5-3h5-3h5-(x2)--0h3-0h3-0h3-0h3--3h5-0h3-3h5-5h8b-|
|---------------------------------------------------------|
|---------------------------------------------------------|
    
Pre-Chorus
|------------------------------------------------------------------------|
|------------------------------------------------------------------------|
|------------------------------------------------------------------------|
|-10---8---8-5-8-5-8-5-8-5-3-3-3-5--5---10---5--8-5-8-5-8-5-8-5-3-3-3-5~-|
|-10---8----------------------------5---10---5---------------------------|
|-10---8----------------------------5---10---5---------------------------|
 (x16 each)                         (each x16)

Chorus
|-------------------------------------------------------------------------|
|-------------------------------------------------------------------------|
|-------------------------------------------------------------------------|
|-1-11-1-1-4-44-4-4-5-55-5-5-0-00-0-0-1-11-1-1-4-44-4-4-5-55-5-5-5-55-5-5-|
|-1-11-1-1-4-44-4-4-5-55-5-5-0-00-0-0-1-11-1-1-4-44-4-4-5-55-5-5-5-55-5-5-|
|-1-11-1-1-4-44-4-4-5-55-5-5-0-00-0-0-1-11-1-1-4-44-4-4-5-55-5-5-5-55-5-5-|

|---------------------------------------------|
|---------------------------------------------|
|---------------------------------------------|
|-1-11-1-1-4-44-4-4-5-55-5-5-0-00-0-0-111-444-|
|-1-11-1-1-4-44-4-4-5-55-5-5-0-00-0-0-111-444-|
|-1-11-1-1-4-44-4-4-5-55-5-5-0-00-0-0-111-444-|
                                      (x4 each)
Verse
|--------------------------|
|--------------------------|
|--------***--*-*-*--------|(Play this after the first guitar plays   
|-----3--333--3-3-3--4~-1~-|the first half of the first guitar intro)
|-----3--333--3-3-3--4~-1~-|
|-----3--333--3-3-3--4~-1~-|
         (x5)

(2nd guitar Intro x2)

(Chorus)

Bridge (not too sure about this first part)
|---------------------------|
|----------11---------------|
|-10-12-10----10------------|(x12)
|----------------10-12------|
|---------------------10-12-|
|---------------------------|

|---------------------------------------------------|      
|---------------------------------------------------|      
|---------------------------------------------------|(x2)  
|-3h5-(x5)--5h7-(x5)--7h8-(x5)--8h10-(x3)--10-8-7-5-|      
|---------------------------------------------------|      
|---------------------------------------------------|      

|----------------------------------------|
|----------------------------------------|
|----------------------------------------|
|-3h5-(x5)--5h7-(x5)---------------------|
|-----------------8h10-(x4)\--8h10-(x3)\-|
|----------------------------------------|

Outro
|---------------------------|
|---------------------------|
|---------------------------|
|---------------------------|
|-8-10--8-10--8-10--8-10\\\-|
|---------------------------|

Key-
\  |Slide down
/  |Slide up
h  |Hammer on
b  |Bend
***|Palm mute/triplets 
Добавлено: 14.04.2012
Другие материалы по этой песне:

Страница создана 28.02.2012
http://primanota.ru/atreyu/we-stand-up-chords.htm
Привет, Гость.
Предлагаем пройти революционный курс по гитаре.
Подарок от PrimaNota.Ru, забирай!