PrimaNota.ru - самый крупный в мире бесплатный архив песенных текстов, аккордов, табулатур и нот


Atreyu - The Squeeze - таба, бас-таба, видео

Регистрация Запомнить меня
Войти через:  Facebook Google Twitter Vk Yandex Mail.ru

Atreyu - The Squeeze - таба, бас-таба, видео

Печатать
Просмотров: 169
Its better than nothing, right?

VS-volume Swell
.-Palm Muting

|-7-------5-------3--------|
|-8-------6-------4--------|
|-9-------7-------5--------|
|-9-------7-------5--------|
|-7-------5-------3--------|
|--------------------------|


|--------------------------------------------------|
|--------------------------------------------------|
|--------------------------------------------------|
|--------0-------------------------------------3-5-|
|--------0-------0--0--0--0--0--0----6---------3-5-|
|-0------0-------0--0--0--0--0--0--7---7-5-3-0-3-5-|
VS<<<<<<         .  .  .  .  .  .             

Verse
|--------------------------------------------------|
|--------------------------------------------------|
|--------------------------------------------------|
|--------------------------------------------------|
|--------------------------------------6-6-5-6-5-3-|
|-15/-0-00-00-00-0-0000000-15/-0-00-00-6-6-5-6-5-3-|
        ..    ..   .......       ..
Pre Chorus
|---------------|
|---------------|
|---------------|
|-7-----8-7-5-7-|
|---------------|
|---------------|
Добавлено: 04.03.2012
Другие материалы по этой песне:
  • Аккорды и текст

Страница создана 04.03.2012
http://primanota.ru/atreyu/the-squeeze-chords.htm
Привет, Гость.
Предлагаем пройти революционный курс по гитаре.
Подарок от PrimaNota.Ru, забирай!