PrimaNota.ru - самый крупный в мире бесплатный архив песенных текстов, аккордов, табулатур и нот


Atreyu - The Rememberance Ballad - таба, видео

Регистрация Запомнить меня
Войти через:  Facebook Google Twitter Vk Yandex Mail.ru

Atreyu - The Rememberance Ballad - таба, видео

Печатать
Просмотров: 102
                             THE REMEMBERANCE BALLAD - ATREYU

Tabbed by: Marshall
Email: Inuyasha_Freak_5126@hotmail.com

Tuning: CGCFAd

So here's how its gonna work people.. I'm gonna write out guitar 1 which is Dan Jacobs, 
guitar 2 playing that same part below it.
By the way guitar 2 is Travis Miguel.
Well here it is, enjoy, I made it as easy to follow as possible :p


Guitar 1:INTRO
d|----------------------------------------------------|
A|----15-17-18~-17-18-13-13-15p13-15~-----------------|
F|----------------------------------------------------|
C|-0~-------------------------------------------------|
G|-0~-------------------------------------------------|
C|-0~-------------------------------------------------|


Guitar 2:INTRO
d|------------------------------------------------|
A|------------------------------------------------|
F|-7~-----------------5~--------------------------|
C|-7~-----------------5~--------------------------|
G|-5~-----------------3~--------------------------|
C|------------------------------------------------|

Guitar 1: INTRO
d|-------------------^18-20-20-20-20p18-15-15bb-13-12h13-13\-------|
A|----------------18^----------------------------------------------|
F|----15-17-18-17^-------------------------------------------------|
C|-0~--------------------------------------------------------------|
G|-0~--------------------------------------------------------------|
C|-0~--------------------------------------------------------------|


Guitar 2: INTRO
d|--------------------------------------------------------|
A|--------------------------------------------------------|
F|-7~-------------------------5~--------------------------|
C|-7~-------------------------5~--------------------------|
G|-5~-------------------------3~--------------------------|
C|--------------------------------------------------------|


Guitar 1:INTRO
d|----------------------------------------------------|
A|----15-17-18~-17-18-13-13-15p13-15~-----------------|
F|----------------------------------------------------|
C|-0~-------------------------------------------------|
G|-0~-------------------------------------------------|
C|-0~-------------------------------------------------|


Guitar 2:INTRO
d|----------------------------------------------------------------|
A|----------------------------------------------------------------|
F|----------------------------------------------------------------|
C|-0000000000000000------------8888888888888888-------------------|
G|-0000000000000000------------8888888888888888-------------------|
C|-0000000000000000------------8888888888888888-------------------|
   (sixteen times)


Guitar 1:INTRO
d|--------------------^18-20-20-22-18--15bb-13-12h13-13\----------|
A|----------------18^---------------------------------------------|
F|----15-17-18-17^------------------------------------------------|
C|-0~-------------------------------------------------------------|
G|-0~-------------------------------------------------------------|
C|-0~-------------------------------------------------------------|


Guitar 2:INTRO
d|----------------------------------------------------------------|
A|----------------------------------------------------------------|
F|----------------------------------------------------------------|
C|-0000000000000000------------8888888888888888-------------------|
G|-0000000000000000------------8888888888888888-------------------|
C|-0000000000000000------------8888888888888888-------------------|


Guitar 1:INTRO
d|----------------------------------------------------|
A|----15-17-18~-17-18-13-13-15p13-15~-----------------|
F|----------------------------------------------------|
C|-0~-------------------------------------------------|
G|-0~-------------------------------------------------|
C|-0~-------------------------------------------------|


Guitar 2:INTRO
d|----------------------------------------------------------------|
A|----------------------------------------------------------------|
F|----------------------------------------------------------------|
C|-0000000000000000------------8888888888888888-------------------|
G|-0000000000000000------------8888888888888888-------------------|
C|-0000000000000000------------8888888888888888-------------------|


Guitar 1:INTRO
d|--------------------^18-20-20-20b22-20p18-20~--22bb-18-17-------------|
A|----------------18^---------------------------------------20-18-17~~--|
F|----15-17-18-17^------------------------------------------------------|
C|-0~-------------------------------------------------------------------|
G|-0~-------------------------------------------------------------------|
C|-0~-------------------------------------------------------------------|


Guitar 2:INTRO
d|----------------------------------------------------------------|
A|----------------------------------------------------------------|
F|----------------------------------------------------------------|
C|-0000000000000000------------8888888888888888\7~----------------|
G|-0000000000000000------------8888888888888888\7~----------------|
C|-0000000000000000------------8888888888888888\7~----------------|


Guitar 1:VERSE
d|------------------------------------------------------------------------|
A|------------------------------------------------------------------------|
F|--------10-9------------------------------10-9--------------------------|
C|-0-0-0-------10-12~----------------------------10-8~--------------------|
G|-0-0-0---------------0-0-0-0-00-0-0-8-8-8~--------------8-8-8-8-88-8-8--|
C|-0-0-0---------------0-0-0-0-00-0-0-8-8-8~--------------8-8-8-8-88-8-8--|
     . .               . . .   ..   .   . .               . . .   ..   .


Guitar 2:VERSE
d|---------------------------------------------------------|
A|---------------------------------------------------------|
F|-7-7-7~----7-7-7-7-7-7-7--3-3-3~---3-3-3-3-3-3-3~--------|
C|-7-7-7~----7-7-7-7-7-7-7--3-3-3~---3-3-3-3-3-3-3~--------|
G|-5-5-5~----5-5-5-5-5-5-5--1-1-1~---1-1-1-1-1-1-1~--------|
C|---------------------------------------------------------|
     .       . . . . . . .    .      . . . . . . .


Guitar 1:VERSE
d|-------------------------------------------------------------------------|
A|-------------------------------------------------------------------------|
F|--------10-9------------------------------10-9-------10/12-10-9h10p9-5h7-|
C|-0-0-0-------10-12~----------------------------10-8~---------------------|
G|-0-0-0---------------0-0-0-0-00-0-0-8-8-8~-------------------------------|
C|-0-0-0---------------0-0-0-0-00-0-0-8-8-8~-------------------------------|
     . .               . . .   ..   .   . .


Guitar 2:VERSE
d|---------------------------------------------------------|
A|---------------------------------------------------------|
F|-7-7-7~----7-7-7-7-7-7-7--3-3-3~---3-3-3-3-3-3-3~--------|
C|-7-7-7~----7-7-7-7-7-7-7--3-3-3~---3-3-3-3-3-3-3~--------|
G|-5-5-5~----5-5-5-5-5-5-5--1-1-1~---1-1-1-1-1-1-1~--------|
C|---------------------------------------------------------|
     .       . . . . . . .    .      . . . . . . .


Guitar 1:VERSE
d|------------------------------------------------------------------------|
A|------------------------------------------------------------------------|
F|--------10-9------------------------------10-9--------------------------|
C|-00000-------10-12~----------------------------10-8~--------------------|
G|-00000---------------0-0-0-0-00-0-0-88888~--------------8-8-8-8-88-8-8--|
C|-00000---------------0-0-0-0-00-0-0-88888~--------------8-8-8-8-88-8-8--|
   ....                . . .   ..   . ....                . . .   ..   .

Guitar 2:VERSE
d|---------------------------------------------------------|
A|---------------------------------------------------------|
F|-77777~----7-7-7-7-7-7-7--33333~---3-3-3-3-3-3-3~--------|
C|-77777~----7-7-7-7-7-7-7--33333~---3-3-3-3-3-3-3~--------|
G|-55555~----5-5-5-5-5-5-5--11111~---1-1-1-1-1-1-1~--------|
C|---------------------------------------------------------|
   ....      . . . . . . .  ....     . . . . . . .


Guitar 1:VERSE
d|-------------------------------------------------------------------------|
A|-------------------------------------------------------------------------|
F|--------10-9------------------------------10-9-------10/12-10-9h10p9-5h7-|
C|-00000-------10-12~----------------------------10-8~---------------------|
G|-00000---------------0-0-0-0-00-0-0-88888~-------------------------------|
C|-00000---------------0-0-0-0-00-0-0-88888~-------------------------------|
   ....                . . .   ..   . ....


Guitar 2:VERSE
d|---------------------------------------------------------|
A|---------------------------------------------------------|
F|-77777~----7-7-7-7-7-7-7--33333~---3-3-3-3-3-3-3~--------|
C|-77777~----7-7-7-7-7-7-7--33333~---3-3-3-3-3-3-3~--------|
G|-55555~----5-5-5-5-5-5-5--11111~---1-1-1-1-1-1-1~--------|
C|---------------------------------------------------------|
   ....      . . . . . . .  ....     . . . . . . .


Guitar 1:PRECHORUS
d|--------------------------------------------------------------------|
A|--------------------------------------------------------------------|
F|--------------------------------------------------------------------|
C|-55555555-77777777-88888888-1010101010101010-00000000-77777777-8~---|
G|-55555555-77777777-88888888-1010101010101010-00000000-77777777-8~---|
C|-55555555-77777777-88888888-1010101010101010-00000000-77777777-8~---|
   (eight times each)


Guitar 2:PRECHORUS
d|-------------------------------------------------------------------------|
A|-------------------------------------------------------------------------|
F|-77777777-99999999-1010101010101010-1212121212121212-77777777-99999999-10|
C|-xxxxxxxx-xxxxxxxx-x-x-x-x-x-x-x-x--x-x-x-x-x-x-x-x--xxxxxxxx-xxxxxxxx-x-|
G|-55555555-77777777-8-8-8-8-8-8-8-8--1010101010101010-55555555-77777777-8-|
C|-------------------------------------------------------------------------|
   (eight times each)


Guitar 1:CHORUS
d|----------------------------------------------------------------------|
A|----------------------------------------------------------------------|
F|----------------------------------------------------------------------|
C|-3333333333333333-0000000000000000-8888888888888888-7777777777777777--|
G|-3333333333333333-0000000000000000-8888888888888888-7777777777777777--|
C|-3333333333333333-0000000000000000-8888888888888888-7777777777777777--|
   (sixteen times)


Guitar 2:CHORUS
d|-----------------------------------------------------|
A|-----------------------------------------------------|
F|-10101010101010101010101010101010-7777777777777777---|
C|-x-x-x-x-x-x-x-x-x-x-x-x-x-x-x-x--xxxxxxxxxxxxxxxx---|
G|-8-8-8-8-8-8-8-8-8-8-8-8-8-8-8-8--5555555555555555---|
C|-----------------------------------------------------|
       (sixteen times each)
        -----------------------------------------------------|
        -----------------------------------------------------|
        -10101010101010101010101010101010-9999999999999999---|
        -x-x-x-x-x-x-x-x-x-x-x-x-x-x-x-x--xxxxxxxxxxxxxxxx---|
        -8-8-8-8-8-8-8-8-8-8-8-8-8-8-8-8--7777777777777777---|
        -----------------------------------------------------|


Guitar 1:CHORUS
d|----------------------------------------------------------------------|
A|----------------------------------------------------------------------|
F|----------------------------------------------------------------------|
C|-3333333333333333-0000000000000000-8888888888888888-7777777777777777--|
G|-3333333333333333-0000000000000000-8888888888888888-7777777777777777--|
C|-3333333333333333-0000000000000000-8888888888888888-7777777777777777--|
   (sixteen times)


Guitar 2:CHORUS
d|-----------------------------------------------------|
A|-----------------------------------------------------|
F|-10101010101010101010101010101010-7777777777777777---|
C|-x-x-x-x-x-x-x-x-x-x-x-x-x-x-x-x--xxxxxxxxxxxxxxxx---|
G|-8-8-8-8-8-8-8-8-8-8-8-8-8-8-8-8--5555555555555555---|
C|-----------------------------------------------------|
       (sixteen times each)
        -----------------------------------------------------|
        -----------------------------------------------------|
        -10101010101010101010101010101010-9999999999999999---|
        -x-x-x-x-x-x-x-x-x-x-x-x-x-x-x-x--xxxxxxxxxxxxxxxx---|
        -8-8-8-8-8-8-8-8-8-8-8-8-8-8-8-8--7777777777777777---|
        -----------------------------------------------------|

Guitar 1:VERSE 2
d|------------------------------|
A|------------------------------|
F|-12/15-14~--------------------| X 2 (listen hard for this and the timing)
C|-x--x--x----------------------|
G|-10/13-12~--------------------|
C|------------------------------|


Guitar 2:VERSE 2
d|------------------------------|
A|------------------------------|
F|-12/14-15~--------------------| X 2 (same as above)
C|-x--x--x----------------------|
G|-10/12-13~--------------------|
C|------------------------------|


Guitar 1:PRECHORUS
d|--------------------------------------------------------------------|
A|--------------------------------------------------------------------|
F|--------------------------------------------------------------------|
C|-55555555-77777777-88888888-1010101010101010-00000000-77777777-8~---|
G|-55555555-77777777-88888888-1010101010101010-00000000-77777777-8~---|
C|-55555555-77777777-88888888-1010101010101010-00000000-77777777-8~---|
   (eight times each)


Guitar 2:PRECHORUS
d|-------------------------------------------------------------------------|
A|-------------------------------------------------------------------------|
F|-77777777-99999999-1010101010101010-1212121212121212-77777777-99999999-10|
C|-xxxxxxxx-xxxxxxxx-x-x-x-x-x-x-x-x--x-x-x-x-x-x-x-x--xxxxxxxx-xxxxxxxx-x-|
G|-55555555-77777777-8-8-8-8-8-8-8-8--1010101010101010-55555555-77777777-8-|
C|-------------------------------------------------------------------------|
   (eight times each)

Guitar 1:CHORUS
d|----------------------------------------------------------------------|
A|----------------------------------------------------------------------|
F|----------------------------------------------------------------------|
C|-3333333333333333-0000000000000000-8888888888888888-7777777777777777--|
G|-3333333333333333-0000000000000000-8888888888888888-7777777777777777--|
C|-3333333333333333-0000000000000000-8888888888888888-7777777777777777--|
   (sixteen times)


Guitar 2:CHORUS
d|-----------------------------------------------------|
A|-----------------------------------------------------|
F|-10101010101010101010101010101010-7777777777777777---|
C|-x-x-x-x-x-x-x-x-x-x-x-x-x-x-x-x--xxxxxxxxxxxxxxxx---|
G|-8-8-8-8-8-8-8-8-8-8-8-8-8-8-8-8--5555555555555555---|
C|-----------------------------------------------------|
       (sixteen times each)
        -----------------------------------------------------|
        -----------------------------------------------------|
        -10101010101010101010101010101010-9999999999999999---|
        -x-x-x-x-x-x-x-x-x-x-x-x-x-x-x-x--xxxxxxxxxxxxxxxx---|
        -8-8-8-8-8-8-8-8-8-8-8-8-8-8-8-8--7777777777777777---|
        -----------------------------------------------------|


Guitar 1:CHORUS
d|----------------------------------------------------------------------|
A|----------------------------------------------------------------------|
F|----------------------------------------------------------------------|
C|-3333333333333333-0000000000000000-8888888888888888-7777777777777777--|
G|-3333333333333333-0000000000000000-8888888888888888-7777777777777777--|
C|-3333333333333333-0000000000000000-8888888888888888-7777777777777777--|
   (sixteen times)


Guitar 2:CHORUS
d|-----------------------------------------------------|
A|-----------------------------------------------------|
F|-10101010101010101010101010101010-7777777777777777---|
C|-x-x-x-x-x-x-x-x-x-x-x-x-x-x-x-x--xxxxxxxxxxxxxxxx---|
G|-8-8-8-8-8-8-8-8-8-8-8-8-8-8-8-8--5555555555555555---|
C|-----------------------------------------------------|
       (sixteen times each)
        -----------------------------------------------------|
        -----------------------------------------------------|
        -10101010101010101010101010101010-9999999999999999---|
        -x-x-x-x-x-x-x-x-x-x-x-x-x-x-x-x--xxxxxxxxxxxxxxxx---|
        -8-8-8-8-8-8-8-8-8-8-8-8-8-8-8-8--7777777777777777---|
        -----------------------------------------------------|

Guitar 1:SOLO
d|--------------------------------------------------|
A|-------5-8-6+b-5-5-6p5----------------------------|
F|-/7~~b-----------------5-----------------9h10-12~-|
C|-----------------------3-2h3-3-3-2h3-2~~----------|
G|--------------------------------------------------|
C|--------------------------------------------------|

        ----------------------------12-13-15-13-12-13~-|
        -------------------12-13-15--------------------|
        ----------11-12-14-----------------------------|
 (cont.)-10-11-13--------------------------------------|
        -----------------------------------------------|
        -----------------------------------------------|


        -17-20-17p15-15-13-20b22-20-19-20--------------|
        ----------------------------------20-13~-------|
        -----------------------------------------------|
 (cont.)-----------------------------------------------|
        -----------------------------------------------|
        -----------------------------------------------|

        -------------------17-18-20-18-20-22-----------|
        -17-18-20-18-20-22-----------------------------|
 (cont.)-----------------------------------------------|
        -----------------------------------------------|
        -----------------------------------------------|
        -----------------------------------------------|

        -22-20-18-20-18-17-----------------------------|
        -------------------22-20-18-17-18-20-18~~~\\\--|
        -----------------------------------------------|
        -----------------------------------------------|
        -----------------------------------------------|
        -----------------------------------------------|


Guitar 2:SOLO
d|---------------------------------------------------------------------|
A|---------------------------------------------------------------------|
F|---------------------------------------------------------------------|X2
C|-5555555555555555-8888888888888888-3333333333333333-2222222222222222-|
G|-5555555555555555-8888888888888888-3333333333333333-2222222222222222-|
C|-5555555555555555-8888888888888888-3333333333333333-2222222222222222-|


Guitar 1:PRECHORUS
d|--------------------------------------------------------------------|
A|--------------------------------------------------------------------|
F|--------------------------------------------------------------------|
C|-55555555-77777777-88888888-1010101010101010-00000000-77777777-8~---|
G|-55555555-77777777-88888888-1010101010101010-00000000-77777777-8~---|
C|-55555555-77777777-88888888-1010101010101010-00000000-77777777-8~---|
   (eight times each)


Guitar 2:PRECHORUS
d|-------------------------------------------------------------------------|
A|-------------------------------------------------------------------------|
F|-77777777-99999999-1010101010101010-1212121212121212-77777777-99999999-10|
C|-xxxxxxxx-xxxxxxxx-x-x-x-x-x-x-x-x--x-x-x-x-x-x-x-x--xxxxxxxx-xxxxxxxx-x-|
G|-55555555-77777777-8-8-8-8-8-8-8-8--1010101010101010-55555555-77777777-8-|
C|-------------------------------------------------------------------------|
   (eight times each)


Guitar 1:CHORUS
d|----------------------------------------------------------------------|
A|----------------------------------------------------------------------|
F|----------------------------------------------------------------------|
C|-3333333333333333-0000000000000000-8888888888888888-7777777777777777--|
G|-3333333333333333-0000000000000000-8888888888888888-7777777777777777--|
C|-3333333333333333-0000000000000000-8888888888888888-7777777777777777--|
   (sixteen times)


Guitar 2:CHORUS
d|-----------------------------------------------------|
A|-----------------------------------------------------|
F|-10101010101010101010101010101010-7777777777777777---|
C|-x-x-x-x-x-x-x-x-x-x-x-x-x-x-x-x--xxxxxxxxxxxxxxxx---|
G|-8-8-8-8-8-8-8-8-8-8-8-8-8-8-8-8--5555555555555555---|
C|-----------------------------------------------------|
       (sixteen times each)
        -----------------------------------------------------|
        -----------------------------------------------------|
        -10101010101010101010101010101010-9999999999999999---|
        -x-x-x-x-x-x-x-x-x-x-x-x-x-x-x-x--xxxxxxxxxxxxxxxx---|
        -8-8-8-8-8-8-8-8-8-8-8-8-8-8-8-8--7777777777777777---|
        -----------------------------------------------------|


Guitar 1:CHORUS
d|----------------------------------------------------------------------|
A|----------------------------------------------------------------------|
F|----------------------------------------------------------------------|
C|-3333333333333333-0000000000000000-8888888888888888-7777777777777777--|
G|-3333333333333333-0000000000000000-8888888888888888-7777777777777777--|
C|-3333333333333333-0000000000000000-8888888888888888-7777777777777777--|
   (sixteen times)


Guitar 2:CHORUS
d|-----------------------------------------------------|
A|-----------------------------------------------------|
F|-10101010101010101010101010101010-7777777777777777---|
C|-x-x-x-x-x-x-x-x-x-x-x-x-x-x-x-x--xxxxxxxxxxxxxxxx---|
G|-8-8-8-8-8-8-8-8-8-8-8-8-8-8-8-8--5555555555555555---|
C|-----------------------------------------------------|
       (sixteen times each)
        -----------------------------------------------------|
        -----------------------------------------------------|
        -10101010101010101010101010101010-9999999999999999---|
        -x-x-x-x-x-x-x-x-x-x-x-x-x-x-x-x--xxxxxxxxxxxxxxxx---|
        -8-8-8-8-8-8-8-8-8-8-8-8-8-8-8-8--7777777777777777---|
        -----------------------------------------------------|


Guitar 1:CHORUS
d|----------------------------------------------------------------------|
A|----------------------------------------------------------------------|
F|----------------------------------------------------------------------|
C|-3333333333333333-0000000000000000-8888888888888888-7777777777777777--|
G|-3333333333333333-0000000000000000-8888888888888888-7777777777777777--|
C|-3333333333333333-0000000000000000-8888888888888888-7777777777777777--|
   (sixteen times)


Guitar 2:CHORUS
d|-----------------------------------------------------|
A|-----------------------------------------------------|
F|-10101010101010101010101010101010-7777777777777777---|
C|-x-x-x-x-x-x-x-x-x-x-x-x-x-x-x-x--xxxxxxxxxxxxxxxx---|
G|-8-8-8-8-8-8-8-8-8-8-8-8-8-8-8-8--5555555555555555---|
C|-----------------------------------------------------|
       (sixteen times each)
        -----------------------------------------------------|
        -----------------------------------------------------|
        -10101010101010101010101010101010-9999999999999999---|
        -x-x-x-x-x-x-x-x-x-x-x-x-x-x-x-x--xxxxxxxxxxxxxxxx---|
        -8-8-8-8-8-8-8-8-8-8-8-8-8-8-8-8--7777777777777777---|
        -----------------------------------------------------|


Guitar 1:CHORUS
d|----------------------------------------------------------------------|
A|----------------------------------------------------------------------|
F|----------------------------------------------------------------------|
C|-3333333333333333-0000000000000000-8888888888888888-7777777777777777--|
G|-3333333333333333-0000000000000000-8888888888888888-7777777777777777--|
C|-3333333333333333-0000000000000000-8888888888888888-7777777777777777--|
   (sixteen times)


Guitar 2:CHORUS
d|-----------------------------------------------------|
A|-----------------------------------------------------|
F|-10101010101010101010101010101010-7777777777777777---|
C|-x-x-x-x-x-x-x-x-x-x-x-x-x-x-x-x--xxxxxxxxxxxxxxxx---|
G|-8-8-8-8-8-8-8-8-8-8-8-8-8-8-8-8--5555555555555555---|
C|-----------------------------------------------------|
       (sixteen times each)
        -----------------------------------------------------|
        -----------------------------------------------------|
        -10101010101010101010101010101010-9999999999999999---|
        -x-x-x-x-x-x-x-x-x-x-x-x-x-x-x-x--xxxxxxxxxxxxxxxx---|
        -8-8-8-8-8-8-8-8-8-8-8-8-8-8-8-8--7777777777777777---|
        -----------------------------------------------------|

Guitar 1:END
d|-------|
A|-------|
F|-------|
C|-3~~~~-|
G|-3~~~~-|
C|-3~~~~-|


Guitar 2:END
d|--------|
A|--------|
F|-10~~~~-|
C|-10~~~~-|
G|--8~~~~-|
C|--------|

Now just so everyone knows: im pretty well positive that the solo has 2 guitars soloing 
once:p and then rythm.. but i just posted as one solo.. it sounds good enough. But if 
have complaints then i guess you post them.. and i may do a solo tab for the song.

| /    slide up
| \    slide down
| h    hammer-on
| p    pull-off
| ~    let ring
| +    pinch harmonic
| +h   half pinch harmonic
| x    mute note
| b    bend
| bb   bend & bend back
| ^    sweep
| .    palm mute
Добавлено: 10.04.2012
Другие материалы по этой песне:
  • Аккорды и текст

Страница создана 10.04.2012
http://primanota.ru/atreyu/the-rememberance-ballad-chords.htm
Привет, Гость.
Предлагаем пройти революционный курс по гитаре.
Подарок от PrimaNota.Ru, забирай!