PrimaNota.ru - самый крупный в мире бесплатный архив песенных текстов, аккордов, табулатур и нот


Atreyu - The Curse - таба, видео

Регистрация Запомнить меня
Войти через:  Facebook Google Twitter Vk Yandex Mail.ru

Atreyu - The Curse - таба, видео

Печатать
Просмотров: 91
Much easier to print if it's in one document. I'm still missing two songs but keep
checking for updates. Have fun playing these songs. Yes they're all correct and if
you disagree, play it on your guitar. You'll see.

Artist - Atreyu
Album - The Curse

1. Blood Children - No Guitars

2. BLEEDING MASCARA

Gtr I (C G C F A D)
Gtr II (C G C F A D)

  Gtr I
             PM----------------------------------
|-------||--------------------------------------|
|-------||o-------------------------------------|
|-------||--------------------------------------|
|-12\---||--------------------------------------|
|-12\---||o--0--0--0--0--0--0--0--0--0--0--0--0-|
|-12\---||---0--0--0--0--0--0--0--0--0--0--0--0-|
|
| Gtr II
|-------||-----------17----------------17-------|
|-------||o-------18----18----------18----18----|
|-------||-----19----------19----19----------19-|
|-12\---||--19----------------19----------------|
|-12\---||o-------------------------------------|
|-12\---||--------------------------------------|


                    F5       Ab5
 ----------------------------------|
|-------------------------------------|
|-------------------------------------|
|-------------------------------------|
|-------------------------------------|
|--0--0--0--0--0--0--3--3--3--6--6--6-|
|--0--0--0--0--0--0--3--3--3--6--6--6-|
|
|----------17-------18-17-15-17-15----|
|-------18----18-------------------18-|
|----19----------19-------------------|
|-19----------------------------------|
|-------------------------------------|
|-------------------------------------|


  1.
  G5                                    Bb5
   PM----------------------------------------------------------------|
|-------------------------------------|---------------------------------||
|-------------------------------------|--------------------------------o||
|-------------------------------------|---------------------------------||
|-------------------------------------|---------------------------------||
|--5--5--5--5--5--5--5--5--5--5--5--5-|--8----8-8-8--8--8--8-8-8-8-8-8-o||
|--5--5--5--5--5--5--5--5--5--5--5--5-|--8----8-8-8--8--8--8-8-8-8-8-8--||
|
|----------17----------------17-------|-17b18-------17-15-17------------||
|-------18----18----------18----18----|--------------------------------o||
|----19----------19----19----------19-|---------------------------------||
|-19----------------19----------------|---------------------------------||
|-------------------------------------|--------------------------------o||
|-------------------------------------|---------------------------------||


  2.
  G5                                    Bb5
   PM------------------------------------------------------------------|
|-------------------------------------|----------------------------------||
|-------------------------------------|----------------------------------||
|-------------------------------------|----------------------------------||
|-------------------------------------|----------------------------------||
|--5--5--5--5--5--5--5--5--5--5--5--5-|-8-8-8--8--8--8---8-----8-8-8-8-8-||
|--5--5--5--5--5--5--5--5--5--5--5--5-|-8-8-8--8--8--8---8-----8-8-8-8-8-||
|
|----------17----------------17-------|-------------15-(15)b17-----------||
|-------18----18----------18----18----|----------18----------------------||
|----19----------19----19----------19-|-------18-------------------------||
|-19----------------19----------------|----------------------------------||
|-------------------------------------|----------------------------------||
|-------------------------------------|----------------------------------||


 Pre-Verse
  D5                                                       F5       Ab5
|-------------------------------------|--------------------------------------|
|-------------------------------------|--------------------------------------|
|-------------------------------------|--------------------------------------|
|--0----------------------------------|-(0)-----------------3--------6-------|
|--0----------------------------------|-(0)-----------------3--------6-------|
|--0----------------------------------|-(0)-----------------3--------6-------|
|
|----------17----------------17-------|-----------17-------18-17-15-17-15----|
|-------18----18----------18----18----|--------18----18-------------------18-|
|----19----------19----19----------19-|-----19----------19-------------------|
|-19----------------19----------------|-19-----------------------------------|
|-------------------------------------|--------------------------------------|
|-------------------------------------|--------------------------------------|


  G5                                    Bbsus2
|-------------------------------------|----------------------|
|-------------------------------------|----------------------|
|-------------------------------------|----------------------|
|--5----------------------------------|-10-------------------|
|--5----------------------------------|--8-------------------|
|--5----------------------------------|--8-------------------|
|
|----------17----------------17-------|-17b18----17-15-17----|
|-------18----18----------18----18----|----------------------|
|----19----------19----19----------19-|----------------------|
|-19----------------19----------------|----------------------|
|-------------------------------------|----------------------|
|-------------------------------------|----------------------|


  D5                                                       F5       Ab5
|-------------------------------------|--------------------------------------|
|-------------------------------------|--------------------------------------|
|-------------------------------------|--------------------------------------|
|--0----------------------------------|-(0)-----------------3--------6-------|
|--0----------------------------------|-(0)-----------------3--------6-------|
|--0----------------------------------|-(0)-----------------3--------6-------|
|
|----------17----------------17-------|-----------17----------------17-------|
|-------18----18----------18----18----|--------18----18----------18----18----|
|----19----------19----19----------19-|-----19----------19----19----------19-|
|-19----------------19----------------|-19-----------------19----------------|
|-------------------------------------|--------------------------------------|
|-------------------------------------|--------------------------------------|


  G5                                                              F5
|-------------------------------------|-----------------------------------||
|-------------------------------------|-----------------------------------||
|-------------------------------------|-----------------------------------||
|--5----------------------------------|--------------------5-------3------||
|--5----------------------------------|--------------------5-------3------||
|--5----------------------------------|--------------------5-------3------||
|
|-18-17-15-17-15----15----------------|-----------------------------------||
|----------------18----18-17----15-17-|-18-17-15-17-15--------------------||
|----------------------------18-------|----------------17-17b19---17b19---||
|-------------------------------------|-----------------------------------||
|-------------------------------------|-----------------------------------||
|-------------------------------------|-----------------------------------||


   Verse
    Faster Q.=174
    $
    D5    N.C.        D5      N.C.        D5    Bb5
    Gtrs I, II
    PM--|             PM--|               PM--|
||--------------------------|-----------------------|
||o-------------------------|-----------------------|
||--------------------------|-----------------------|
||--------------------------|-------------------8---|
||o-0-0-0-------------0-0-0-|-------------0-0-0-8---|
||--0-0-0-8p5p0-5p3p0-0-0-0-|-8p5p0-5p3p0-0-0-0-8---|


  D5    N.C.        D5      N.C.        D5    Eb5
  PM--|             PM--|               PM--|
|-------------------------|-----------------------|
|-------------------------|-----------------------|
|-------------------------|-----------------------|
|-------------------------|-------------------1---|
|-0-0-0-------------0-0-0-|-------------0-0-0-1---|
|-0-0-0-8p5p0-5p3p0-0-0-0-|-8p5p0-5p3p0-0-0-0-1---|


  D5   N.C.       D5     N.C.          D5
  Gtr I
  PM-|            PM-|                 PM--------|
|----------------------|---------------------------|
|----------------------|---------------------------|
|------7--8-(8)--------|--7---8--(8)---------------|
|------x--x------------|--x---x--------------------|
|-0--0-5--6-(6)---0--0-|--5---6--(6)---0-0-0-0-0-0-|
|-0--0------------0--0-|---------------0-0-0-0-0-0-|
|
| Gtr II
| PM-|            PM-|                 PM--------|
|----------------------|---------------------------|
|----------------------|---------------------------|
|------7--8-(8)--------|-10--12-(12)---------------|
|------x--x------------|--x---x--------------------|
|-0--0-5--6-(6)---0--0-|--8--10-(10)---0-0-0-0-0-0-|
|-0--0------------0--0-|---------------0-0-0-0-0-0-|


                                                       To Coda
  Db5                                   Eb5
   PM---------------------------------------------------------|
|-------------------------------------|--------------------------||
|-------------------------------------|-------------------------o||
|-------------------------------------|--------------------------||
|-------------------------------------|--------------------------||
|-11-11-11-11-11-11-11-11-11-11-11-11-|-8-8-8-8-8-8-8-8-8-8-8-8-o||
|-11-11-11-11-11-11-11-11-11-11-11-11-|-8-8-8-8-8-8-8-8-8-8-8-8--||
|
|-------------------------------------|--------------------------||
|-------------------------------------|-------------------------o||
|-10-10-10-10-10-10-10-10-10-10-10-10-|-7-7-7-7-7-7-7-7-7-7-7-7--||
|--x--x--x--x--x--x--x--x--x--x--x--x-|-x-x-x-x-x-x-x-x-x-x-x-x--||
|--8--8--8--8--8--8--8--8--8--8--8--8-|-5-5-5-5-5-5-5-5-5-5-5-5-o||
|-------------------------------------|--------------------------||


  C5                                    A5
|-------------------------------------|-------------------------||
|-------------------------------------|-------------------------||
|-------------------------------------|-------------------------||
|-10-10-10-10-10-10-10-10-10-10-10-10-|-7-7-7-7-7-7-7-7-7-7-7-7-||
|-10-10-10-10-10-10-10-10-10-10-10-10-|-7-7-7-7-7-7-7-7-7-7-7-7-||
|-10-10-10-10-10-10-10-10-10-10-10-10-|-7-7-7-7-7-7-7-7-7-7-7-7-||
|
|-------------------------------------|-------------------------||
|-------------------------------------|-------------------------||
|-10-10-10-10-10-10-10-10-10-10-10-10-|-7-7-7-7-7-7-7-7-7-7-7-7-||
|--x--x--x--x--x--x--x--x--x--x--x--x-|-x-x-x-x-x-x-x-x-x-x-x-x-||
|--8--8--8--8--8--8--8--8--8--8--8--8-|-5-5-5-5-5-5-5-5-5-5-5-5-||
|-------------------------------------|-------------------------||


 Chorus
  $$
  G5                        Bb5
|-------------------------|-------------------------|
|-------------------------|-------------------------|
|-------------------------|-------------------------|
|-5--5-(5)--5-5--5-(5)--5-|-8--8-(8)--8-8--8-(8)--8-|
|-5--5-(5)--5-5--5-(5)--5-|-8--8-(8)--8-8--8-(8)--8-|
|-5--5-(5)--5-5--5-(5)--5-|-8--8-(8)--8-8--8-(8)--8-|
|
|-------------------------|-------------------------|
|-------------------------|-------------------------|
|-3-----------------------|-5-----------------------|
|-x-----------------------|-x-----------------------|
|-1-----------------------|-3-----------------------|
|-------------------------|-------------------------|


  D5                         F5
|--------------------------|-------------------------|
|--------------------------|-------------------------|
|--------------------------|-------------------------|
|-0--0-(0)--0--0--0-(0)--0-|-3--3-(3)--3-3--3-(3)--3-|
|-0--0-(0)--0--0--0-(0)--0-|-3--3-(3)--3-3--3-(3)--3-|
|-0--0-(0)--0--0--0-(0)--0-|-3--3-(3)--3-3--3-(3)--3-|
|
|--------------------------|-------------------------|
|--------------------------|-------------------------|
|-------------10-----------|-9-----------5-----------|
|-0------------x-----------|-x-----------x-----------|
|-0------------8-----------|-7-----------3-----------|
|-0------------------------|-------------------------|


  G5                        Bb5
|-------------------------|-------------------------|
|-------------------------|-------------------------|
|-------------------------|-------------------------|
|-5--5-(5)--5-5--5-(5)--5-|-8--8-(8)--8-8--8-(8)--8-|
|-5--5-(5)--5-5--5-(5)--5-|-8--8-(8)--8-8--8-(8)--8-|
|-5--5-(5)--5-5--5-(5)--5-|-8--8-(8)--8-8--8-(8)--8-|
|
|-------------------------|-------------------------|
|-------------------------|-------------------------|
|-3-----------------------|-7-----------------------|
|-x-----------------------|-x-----------------------|
|-1-----------------------|-5-----------------------|
|-------------------------|-------------------------|


  D5                         F5
|--------------------------|--------------------------|
|--------------------------|--------------------------|
|--------------------------|--------------------------|
|-0--0-(0)--0--0--0-(0)--0-|-3--3-(3)--3--3--3-(3)--3-|
|-0--0-(0)--0--0--0-(0)--0-|-3--3-(3)--3--3--3-(3)--3-|
|-0--0-(0)--0--0--0-(0)--0-|-3--3-(3)--3--3--3-(3)--3-|
|
|--------------------------|--------------------------|
|--------------------------|--------------------------|
|-------------10-----------|-9-----------14-----------|
|-0------------x-----------|-x------------x-----------|
|-0------------8-----------|-7-----------12-----------|
|-0------------------------|--------------------------|


  G5                         Bb5
|--------------------------|--------------------------|
|--------------------------|--------------------------|
|--------------------------|--------------------------|
|--5--5-(5)--5-5--5-(5)--5-|--8--8-(8)--8-8--8-(8)--8-|
|--5--5-(5)--5-5--5-(5)--5-|--8--8-(8)--8-8--8-(8)--8-|
|--5--5-(5)--5-5--5-(5)--5-|--8--8-(8)--8-8--8-(8)--8-|
|
|--------------------------|--------------------------|
|--------------------------|--------------------------|
|-12-----------------------|-10-----------------------|
|--x-----------------------|--x-----------------------|
|-10-----------------------|--8-----------------------|
|--------------------------|--------------------------|


  D5                         F5
|--------------------------|-------------------------|
|--------------------------|-------------------------|
|--------------------------|-------------------------|
|-0--0-(0)--0--0--0-(0)--0-|-3--3-(3)--3-3--3-(3)--3-|
|-0--0-(0)--0--0--0-(0)--0-|-3--3-(3)--3-3--3-(3)--3-|
|-0--0-(0)--0--0--0-(0)--0-|-3--3-(3)--3-3--3-(3)--3-|
|
|--------------------------|-------------------------|
|--------------------------|-------------------------|
|-------------10-----------|-9-----------5-----------|
|-0------------x-----------|-x-----------x-----------|
|-0------------8-----------|-7-----------3-----------|
|-0------------------------|-------------------------|


                                      D.S. al Coda
                                      D.S. al Coda
  G5                        Bb5
|-------------------------|-------------------------||
|-------------------------|-------------------------||
|-------------------------|-------------------------||
|-5--5-(5)--5-5--5-(5)--5-|-8-8-8-8-8-8-8-8-8-8-8-8-||
|-5--5-(5)--5-5--5-(5)--5-|-8-8-8-8-8-8-8-8-8-8-8-8-||
|-5--5-(5)--5-5--5-(5)--5-|-8-8-8-8-8-8-8-8-8-8-8-8-||
|
|-------------------------|-------------------------||
|-------------------------|-------------------------||
|-3-----------------------|-7-----------------------||
|-x-----------------------|-x-----------------------||
|-1-----------------------|-5-----------------------||
|-------------------------|-------------------------||


   Interlude
    &
    D5                           N.C.   D5N.C.
    Gtrs I, II
    PM-------------------------|        PM
||------------------------|--------------------|
||o-----------------------|--------------------|
||------------------------|--------------------|
||------------------------|------3--6-----5--3-|
||o-0--0-0-0-0-0--0-0-0-0-|-0--0-x--x---0-x--x-|
||--0--0-0-0-0-0--0-0-0-0-|-0--0-3--6---0-5--3-|


  1.
  D5                       N.C.   D5N.C.
  PM---------------------|        PM
|-------------------|---------------------||
|-------------------|--------------------o||
|-------------------|---------------------||
|-------------------|------3--6-----5--3--||
|-0--0--0--0--0--0--|-0--0-x--x---0-x--x-o||
|-0--0--0--0--0--0--|-0--0-3--6---0-5--3--||


  2.
  D5                       N.C.   D5N.C.
  Gtr I
  PM---------------------|        PM
|-------------------|----------------------------||
|-------------------|----------------------------||
|-------------------|----------------------------||
|-------------------|------3--6------5---------3-||
|-0--0--0--0--0--0--|-0--0-x--x---0--x---------x-||
|-0--0--0--0--0--0--|-0--0-3--6---0--5---------3-||
|
| Gtr II
| PM---------------------|        PM
|-------------------|---------------10b12-(10)---||
|-------------------|----------------------------||
|-------------------|----------------------------||
|-------------------|------3--6------------------||
|-0--0--0--0--0--0--|-0--0-x--x---0--------------||
|-0--0--0--0--0--0--|-0--0-3--6---0--------------||


 Guitar Solo
  D5                                 N.C.   D5N.C.
   PM------------------------------|        PM
|----------------------------|---------------------|
|----------------------------|---------------------|
|----------------------------|---------------------|
|----------------------------|-------3--6-----5--3-|
|--0------0-0-0-0-0--0-0-0-0-|--0--0-x--x---0-x--x-|
|--0------0-0-0-0-0--0-0-0-0-|--0--0-3--6---0-5--3-|
|
|                               ~~
|----------------------------|---------------------|
|-13b15======================|=13------------------|
|----------------------------|---------------------|
|----------------------------|---------------------|
|----------------------------|---------------------|
|----------------------------|---------------------|


  D5                                            N.C.   D5N.C.
   PM-----------------------------------------|        PM ~~~
|------------------------------------|-------------------------|
|------------------------------------|-------------------------|
|------------------------------------|-------------------------|
|------------------------------------|----------3--6-----------|
|--0-----0-----0-----0--0-------0----|--0-----0-x--x---0-------|
|--0-----0-----0-----0--0-------0----|--0-----0-3--6---0-[5]---|
|
|     T     T     T                     ~~~~~
|------------------------------------|-------------------------|
|-13-17p13-17p13-17p13r===(13)-13p10-|-13b15-------------------|
|------------------------------------|-------------------------|
|------------------------------------|-------------------------|
|------------------------------------|-------------------------|
|------------------------------------|-------------------------|


  D5                                             N.C.           D5 N.C.
   PM-----------------------------------------|                  PM
|-------------------------------------|-------------------------------------|
|-------------------------------------|-------------------------------------|
|-------------------------------------|-------------------------------------|
|-------------------------------------|-----------3-----6-----------5-----3-|
|--0-----0--0--0--0--0-----0--0--0--0-|--0-----0--x-----x--------0--x-----x-|
|--0-----0--0--0--0--0-----0--0--0--0-|--0-----0--3-----6--------0--5-----3-|
|
|----------17----------------17-------|----------15----------------15-------|
|-------18----18----------18----18----|-------17----17----------17----17----|
|----19----------19----19----------19-|----17----------17----17----------17-|
|-19----------------19----------------|-17----------------17----------------|
|-------------------------------------|-------------------------------------|
|-------------------------------------|-------------------------------------|


  D5                                             N.C.           D5 N.C.
   PM-----------------------------------------|                  PM ~~~
|-------------------------------------|--------------------------------------|
|-------------------------------------|--------------------------------------|
|-------------------------------------|--------------------------------------|
|-------------------------------------|-----------3-----6--------------------|
|--0-----0-----0-----0-----0-----0----|--0-----0--x-----x--------0-----------|
|--0-----0-----0-----0-----0-----0----|--0-----0--3-----6--------0-[5]-------|
|
|----------19----------------19-------|----------17----------------17--------|
|-------20----20----------20----20----|-------18----18----------18-----18----|
|----21----------21----21----------21-|----19----------19----19-----------19-|
|-21----------------21----------------|-19----------------19-----------------|
|-------------------------------------|--------------------------------------|
|-------------------------------------|--------------------------------------|


  D5                                      N.C.   D5N.C.
   PM-----------------------------------|        PM
|------------------------------|------------------------|
|------------------------------|------------------------|
|------------------------------|------------------------|
|------------------------------|----------3--6-----5--3-|
|--0--0-0-0-0---0------0-0-0-0-|--0-----0-x--x---0-x--x-|
|--0--0-0-0-0---0------0-0-0-0-|--0-----0-3--6---0-5--3-|
|
|                                 ~~~~~
|-18----------(18)b19----------|-18b19------------------|
|------------------------------|------------------------|
|------------------------------|------------------------|
|------------------------------|------------------------|
|------------------------------|------------------------|
|------------------------------|------------------------|


  D5                                       N.C.   D5N.C.
   PM------------------------------------|        PM ~~~
|-------------------------------|-------------------------|
|-------------------------------|-------------------------|
|-------------------------------|-------------------------|
|-------------------------------|----------3--6-----------|
|--0-----0-----0-----0---0---0--|--0-----0-x--x---0-------|
|--0-----0-----0-----0---0---0--|--0-----0-3--6---0-[5]---|
|
|                                  ~~~~~
|-19-17-15-18-17-15-17--15--12--|-------------------------|
|-------------------------------|-15b17-------------------|
|-------------------------------|-------------------------|
|-------------------------------|-------------------------|
|-------------------------------|-------------------------|
|-------------------------------|-------------------------|


  D5                                   N.C.       D5 N.C.
   PM-------------------------------|              PM
|-----------------------------|-----------------------------|
|-----------------------------|-----------------------------|
|-----------------------------|-----------------------------|
|-----------------------------|--------3----6--------5----3-|
|--0---0-0--0-0--0---0-0--0-0-|--0---0-x----x------0-x----x-|
|--0---0-0--0-0--0---0-0--0-0-|--0---0-3----6------0-5----3-|
|
|-----12---11---17--16---15---|-14--15---16---15--16---17---|
|-11--------------------------|-----------------------------|
|-----------------------------|-----------------------------|
|-----------------------------|-----------------------------|
|-----------------------------|-----------------------------|
|-----------------------------|-----------------------------|


                                          D.S.S. al Dbl. Coda
  D5                                     N.C.              D5N.C.
   PM---------------------------------|                    PM ~~~
|-----------------------------|------------------------------------||
|-----------------------------|------------------------------------||
|-----------------------------|------------------------------------||
|-----------------------------|-----------3-----6------------------||
|--0-----0--0----0------0--0--|--0-----0--x-----x----------0-------||
|--0-----0--0----0------0--0--|--0-----0--3-----6----------0-[5]---||
|
|                ~~~~~~~                            ~~~~~~~
|-17b20--------(17)b20--------|----13-17-20-17-20-(20)b22----------||
|-----------------------------|-15---------------------------------||
|-----------------------------|------------------------------------||
|-----------------------------|------------------------------------||
|-----------------------------|------------------------------------||
|-----------------------------|------------------------------------||


 Outro
  &&
  D5                         Bb5
|--------------------------|--------------------------|
|--------------------------|--------------------------|
|--------------------------|--------------------------|
|-0--0-(0)--0--0--0-(0)--0-|-8--8-(8)--8--8--8-(8)--8-|
|-0--0-(0)--0--0--0-(0)--0-|-8--8-(8)--8--8--8-(8)--8-|
|-0--0-(0)--0--0--0-(0)--0-|-8--8-(8)--8--8--8-(8)--8-|
|
|--------------------------|--------------------------|
|--------------------------|--------------------------|
|-------------10-----------|-9-----------14-----------|
|-0------------x-----------|-x------------x-----------|
|-0------------8-----------|-7-----------12-----------|
|-0------------------------|--------------------------|


  G5                         Bb5
|--------------------------|--------------------------|
|--------------------------|--------------------------|
|--------------------------|--------------------------|
|--5--5-(5)--5-5--5-(5)--5-|--8-8-8-8-8-8-8-8-8-8-8-8-|
|--5--5-(5)--5-5--5-(5)--5-|--8-8-8-8-8-8-8-8-8-8-8-8-|
|--5--5-(5)--5-5--5-(5)--5-|--8-8-8-8-8-8-8-8-8-8-8-8-|
|
|--------------------------|--------------------------|
|--------------------------|--------------------------|
|-12-----------------------|-10-----------------------|
|--x-----------------------|--x-----------------------|
|-10-----------------------|--8-----------------------|
|--------------------------|--------------------------|


  G5                         F5      E5
|--------------------------|--------------|
|--------------------------|--------------|
|--------------------------|--------------|
|--5--5-(5)--5-5--5-(5)--5-|--3------2----|
|--5--5-(5)--5-5--5-(5)--5-|--3------2----|
|--5--5-(5)--5-5--5-(5)--5-|--3------2----|
|
|--------------------------|--------------|
|--------------------------|--------------|
|-12-----------------------|-10------9----|
|--x-----------------------|--x------x----|
|-10-----------------------|--8------7----|
|--------------------------|--------------|


  D5
|--------------|--------*|
|--------------|--------*|
|--------------|--------*|
|-0------------|-(0)----*|
|-0------------|-(0)----*|
|-0------------|-(0)----*|
|
|--------------|--------*|
|--------------|--------*|
|-7------------|-(7)----*|
|-x------------|--------*|
|-5------------|-(5)----*|
|--------------|--------*|


3. RIGHT SIDE OF THE BED

Gtr I (C G C F A D)
Gtr II (C G C F A D)

  Gtr I
   PM------|                                    PM|
|------|-----------------|--------------------------|
|------|-----------------|--------------------------|
|------|-----------------|--------------------------|
|------|-----7---5-----8-|-(8)-8--10-(10)-10-10-----|
|--0-0-|-0-0-8-0-7-0-0-8-|-(8)-8--10-(10)-10-10-0-0-|
|--0-0-|-0-0---0---0-0-8-|-(8)-8--10-(10)-10-10-0-0-|
|
| Gtr II
|  PM------|                                    PM|
|------|-----------------|--------------------------|
|------|-----6---5-------|--------------------------|
|------|-----7---5-------|--------------------------|
|------|---------------8-|-(8)-8--10-(10)-10-10-----|
|--0-0-|-0-0---0---0-0-8-|-(8)-8--10-(10)-10-10-0-0-|
|--0-0-|-0-0---0---0-0-8-|-(8)-8--10-(10)-10-10-0-0-|


  D5  F D5EmD5  F5            Bb5      D5
  PM|                                  PM|
|------------------|-----------------------|
|------------------|-----------------------|
|---------------10-|-(10)-10---------------|
|-----7---5-----10-|-(10)-10--8-(8)--8-----|
|-0-0-8-0-7-0-0--8-|--(8)--8--8-(8)--8-0-0-|
|-0-0---0---0-0----|----------8-(8)--8-0-0-|
|
| PM|                                  PM|
|------------------|-----------------------|
|-----6---5--------|-----------------------|
|-----7---5-----10-|-(10)-10---------------|
|---------------10-|-(10)-10--8-(8)--8-----|
|-0-0---0---0-0--8-|--(8)--8--8-(8)--8-0-0-|
|-0-0---0---0-0----|----------8-(8)--8-0-0-|


  D5  F D5EmD5  Bb5        C5            A5
  PM|
|-----------------|------------------------|
|-----------------|------------------------|
|-----------------|------------------------|
|-----7---5-----8-|-(8)-8--10-(10)-10-10-7-|
|-0-0-8-0-7-0-0-8-|-(8)-8--10-(10)-10-10-7-|
|-0-0---0---0-0-8-|-(8)-8--10-(10)-10-10-7-|
|
| PM|
|-----------------|------------------------|
|-----6---5-------|------------------------|
|-----7---5-------|------------------------|
|---------------8-|-(8)-8--10-(10)-10-10---|
|-0-0---0---0-0-8-|-(8)-8--10-(10)-10-10-0-|
|-0-0---0---0-0-8-|-(8)-8--10-(10)-10-10-0-|


                  Bb5                   D5
|---------------------|-------------------||
|---------------------|-------------------||
|---------------------|-------------------||
|-(7)-7-7-7-7-7-7--8--|-(8)-8-8-8-8-8-8-0-||
|-(7)-7-7-7-7-7-7--8--|-(8)-8-8-8-8-8-8-0-||
|-(7)-7-7-7-7-7-7--8--|-(8)-8-8-8-8-8-8-0-||
|
|---------------------|-------------------||
|---------------------|-------------------||
|---------------------|-------------------||
|-----------3-2-------|-------2---5-3-2-0-||
|-(0)-0-3-0-----3-----|-----3---3-------0-||
|-(0)-------------[3]-|-(3)-------------0-||


 Pre-Verse
        F D5EmD5  Bb5        C5            D5
          PM  PM|
|-------------------|------------------------|
|-------------------|------------------------|
|-------------------|------------------------|
|-(0)-0-7---5-----8-|-(8)-8--10-(10)-10-10-0-|
|-(0)-0-8-0-7-0-0-8-|-(8)-8--10-(10)-10-10-0-|
|-(0)-0---0---0-0-8-|-(8)-8--10-(10)-10-10-0-|
|
|         PM  PM|
|-------------------|------------------------|
|-------6---5-------|------------------------|
|-------7---5-------|------------------------|
|-(0)-0-----------8-|-(8)-8--10-(10)-10-10-0-|
|-(0)-0---0---0-0-8-|-(8)-8--10-(10)-10-10-0-|
|-(0)-0---0---0-0-8-|-(8)-8--10-(10)-10-10-0-|


        F D5EmD5  F5                 Bb5           D5
          PM  PM|
|---------------------|------------------------------|
|---------------------|------------------------------|
|------------------10-|-(10)-10----------------------|
|-(0)-0-7---5------10-|-(10)-10------8-(8)-------8-0-|
|-(0)-0-8-0-7-0-0---8-|--(8)--8------8-(8)-------8-0-|
|-(0)-0---0---0-0-----|--------------8-(8)-------8-0-|
|
|         PM  PM|
|---------------------|------------------------------|
|-------6---5---------|------------------------------|
|-------7---5-----/12-|-(12)-10-(10)-9-(9)-10p9------|
|-(0)-0---------------|-------------------------10-0-|
|-(0)-0---0---0-0-----|----------------------------0-|
|-(0)-0---0---0-0-----|----------------------------0-|


        F D5EmD5  Bb5        C5            A5
          PM  PM|
|-------------------|------------------------|
|-------------------|------------------------|
|-------------------|------------------------|
|-(0)-0-7---5-----8-|-(8)-8--10-(10)-10-10-7-|
|-(0)-0-8-0-7-0-0-8-|-(8)-8--10-(10)-10-10-7-|
|-(0)-0---0---0-0-8-|-(8)-8--10-(10)-10-10-7-|
|
|         PM  PM|
|-------------------|------------------------|
|-------6---5-------|------------------------|
|-------7---5-------|------------------------|
|-(0)-0-----------8-|-(8)-8--10-(10)-10-10---|
|-(0)-0---0---0-0-8-|-(8)-8--10-(10)-10-10-0-|
|-(0)-0---0---0-0-8-|-(8)-8--10-(10)-10-10-0-|


                  Bb5                   D5
|---------------------|-------------------||
|---------------------|-------------------||
|---------------------|-------------------||
|-(7)-7-7-7-7-7-7--8--|-(8)-8-8-8-8-8-8-0-||
|-(7)-7-7-7-7-7-7--8--|-(8)-8-8-8-8-8-8-0-||
|-(7)-7-7-7-7-7-7--8--|-(8)-8-8-8-8-8-8-0-||
|
|---------------------|-------------------||
|---------------------|-------------------||
|---------------------|-------------------||
|-----------3-2-------|-------2---5-3-2-0-||
|-(0)-0-3-0-----3-[1]-|-(1)-3---3-------0-||
|-(0)-----------------|-----------------0-||


   Verse
    $
         D5                                Bb5        F5       D5
    Gtrs I, II
                                       PM|
||--------------|-----------|----------------|---------------------||
||o-------------|-----------|----------------|--------------------o||
||--------------|-----------|----------------|---------------------||
||--(0)--0------|------0--0-|-(0)--0-------8-|-(8)-8--3-(3)-3--0---||
||o-(0)--0------|------0--0-|-(0)--0---0-0-8-|-(8)-8--3-(3)-3--0--o||
||--(0)--0------|------0--0-|-(0)--0---0-0-8-|-(8)-8--3-(3)-3--0---||


 Pre-Chorus
        N.C.                        D5
  Gtr I
          PM                 PM
|------------------|------------------|
|------------------|------------------|
|------------------|------------------|
|-(0)-0------------|----------------0-|
|-(0)-0-3---3h5----|-------3---8p7--0-|
|-(0)-0---0------0-|-(0)-0---0------0-|
|
| Gtr II
|         PM                 PM
|------------------|------------------|
|------------------|------------------|
|------------------|------------------|
|-(0)-0------------|----------------0-|
|-(0)-0-3---3h5----|-------3---8p7--0-|
|-(0)-0---0------0-|-(0)-0---0------0-|


        N.C.     Bb5         F5          D5
          PM
|-------------------|----------------------|
|-------------------|----------------------|
|-------------------|----------------------|
|-(0)-0-----------8-|-(8)-8--3-(3)-3-----0-|
|-(0)-0-3---3h5---8-|-(8)-8--3-(3)-3-----0-|
|-(0)-0---0-------8-|-(8)-8--3-(3)-3-----0-|
|
|         PM
|-------------------|----------------------|
|-------------------|----------------------|
|-------------------|----------------------|
|-(0)-0----------/5-|-(5)-5--3-----2-(2)-0-|
|-(0)-0-3---3h5-----|--------------------0-|
|-(0)-0---0---------|--------------------0-|


        N.C.                        A5
          PM                 PM
|------------------|------------------|
|------------------|------------------|
|------------------|------------------|
|-(0)-0------------|----------------7-|
|-(0)-0-3---3h5----|-------3---8p7--7-|
|-(0)-0---0------0-|-(0)-0---0------7-|
|
|         PM                 PM
|------------------|------------------|
|------------------|------------------|
|------------------|------------------|
|-(0)-0------------|----------------0-|
|-(0)-0-3---3h5----|-------3---8p7--0-|
|-(0)-0---0------0-|-(0)-0---0------0-|


                  Bb5                      D5
|--------------------|------------------------||
|--------------------|------------------------||
|--------------------|------------------------||
|-(7)-7-7-7-7-7-7--8-|-(8)-8-8-8--8--8--8---0-||
|-(7)-7-7-7-7-7-7--8-|-(8)-8-8-8--8--8--8---0-||
|-(7)-7-7-7-7-7-7--8-|-(8)-8-8-8--8--8--8---0-||
|
|         PM
|--------------------|------------------------||
|--------------------|------------------------||
|--------------------|---------------------14-||
|-(0)-0-----------/5-|-(5)-5---3-(3)-2-(2)--x-||
|-(0)-0-3---3h5------|---------------------12-||
|-(0)-0---0----------|------------------------||


 Chorus
  $$
       D5              F5                          Bbsus2
|-------------------------|---------------------------|
|-------------------------|---------------------------|
|-------------------------|---------------------------|
|--(0)--0--0---0--0--0--3-|--(3)--3--3---3--3---3--10-|
|--(0)--0--0---0--0--0--3-|--(3)--3--3---3--3---3---8-|
|--(0)--0--0---0--0--0--3-|--(3)--3--3---3--3---3---8-|
|
|-------------------------|---------------------------|
|-------------------------|---------------------------|
|-(14)-14-14--14-14-15-14-|-(14)-14-14--14-15-(15)-17-|
|-------x--x---x--x--x--x-|-------x--x---x--x-------x-|
|-(12)-12-12--12-12-13-12-|-(12)-12-12--12-13-(13)-15-|
|-------------------------|---------------------------|


                         C5                              D5
|---------------------------|-------------------------------|
|---------------------------|-------------------------------|
|---------------------------|-------------------------------|
|-(10)-10-10--10-10-(10)-10-|-(10)-10-10-10--10--10--10---0-|
|--(8)--8--8---8--8--(8)-10-|-(10)-10-10-10--10--10--10---0-|
|--(8)--8--8---8--8--(8)-10-|-(10)-10-10-10--10--10--10---0-|
|
|---------------------------|-------------------------------|
|---------------------------|-------------------------------|
|-(17)-17-15--14-----15--14-|-(14)-14-12-10-(10)-12-(12)-14-|
|-------x--x---x------x---x-|-------x--x--x-------x-------x-|
|-(15)-15-13--12-----13--12-|-(12)-12-10--8--(8)-10-(10)-12-|
|---------------------------|-------------------------------|


       D5                F5                            Bbsus2
|---------------------------|-----------------------------|
|---------------------------|-----------------------------|
|---------------------------|-----------------------------|
|--(0)--0--0-----0--0--0--3-|--(3)--3--3-----3--3---3--10-|
|--(0)--0--0-----0--0--0--3-|--(3)--3--3-----3--3---3---8-|
|--(0)--0--0-----0--0--0--3-|--(3)--3--3-----3--3---3---8-|
|
|---------------------------|-----------------------------|
|---------------------------|-----------------------------|
|-(14)-10-10-10-10-10-10-10-|-(10)-10-10-10-10-12-(12)-10-|
|-------x--x--x--x--x--x--x-|-------x--x--x--x--x-------x-|
|-(12)--8--8--8--8--8--8--8-|--(8)--8--8--8--8-10-(10)--8-|
|---------------------------|-----------------------------|


                            C5                          D5
|------------------------------|---------------------------|
|------------------------------|---------------------------|
|------------------------------|---------------------------|
|-(10)-10-10----10--10-(10)-10-|-(10)-10-10-10-10-10-10--0-|
|--(8)--8--8-----8---8--(8)-10-|-(10)-10-10-10-10-10-10--0-|
|--(8)--8--8-----8---8--(8)-10-|-(10)-10-10-10-10-10-10--0-|
|
|------------------------------|---------------------------|
|------------------------------|---------------------------|
|-(10)--9-(9)-7-(7)--5--(5)--5-|--(5)--5--5--5--5--5--5-14-|
|-------x-----x------x-------x-|-------x--x--x--x--x--x--x-|
|--(8)--7-(7)-5-(5)--3--(3)--3-|--(3)--3--3--3--3--3--3-12-|
|------------------------------|---------------------------|


       D5              F5                          Bbsus2
|-------------------------|---------------------------|
|-------------------------|---------------------------|
|-------------------------|---------------------------|
|--(0)--0--0---0--0--0--3-|--(3)--3--3---3--3---3--10-|
|--(0)--0--0---0--0--0--3-|--(3)--3--3---3--3---3---8-|
|--(0)--0--0---0--0--0--3-|--(3)--3--3---3--3---3---8-|
|
|-------------------------|---------------------------|
|-------------------------|---------------------------|
|-(14)-14-14--14-14-15-14-|-(14)-14-14--14-15-(15)-17-|
|-------x--x---x--x--x--x-|-------x--x---x--x-------x-|
|-(12)-12-12--12-12-13-12-|-(12)-12-12--12-13-(13)-15-|
|-------------------------|---------------------------|


                         C5                                D5
|---------------------------|---------------------------------|
|---------------------------|---------------------------------|
|---------------------------|---------------------------------|
|-(10)-10-10--10-10-(10)-10-|-(10)-10--10--10--10--10--10---0-|
|--(8)--8--8---8--8--(8)-10-|-(10)-10--10--10--10--10--10---0-|
|--(8)--8--8---8--8--(8)-10-|-(10)-10--10--10--10--10--10---0-|
|
|---------------------------|---------------------------------|
|---------------------------|---------------------------------|
|-(17)-17-17--17-19------17-|-(17)-15-(15)-14-(14)-12-(12)-14-|
|-------x--x---x--x-------x-|-------x-------x-------x-------x-|
|-(15)-15-15--15-17------15-|-(15)-13-(13)-12-(12)-10-(10)-12-|
|---------------------------|---------------------------------|


                                                To Coda
       D5                F5                            Bbsus2
|---------------------------|-----------------------------|
|---------------------------|-----------------------------|
|---------------------------|-----------------------------|
|--(0)--0--0-----0--0--0--3-|--(3)--3--3-----3--3---3--10-|
|--(0)--0--0-----0--0--0--3-|--(3)--3--3-----3--3---3---8-|
|--(0)--0--0-----0--0--0--3-|--(3)--3--3-----3--3---3---8-|
|
|---------------------------|-----------------------------|
|---------------------------|-----------------------------|
|-(14)-10-10-10-10-10-10-10-|-(10)-10-10-10-10-12-(12)-10-|
|-------x--x--x--x--x--x--x-|-------x--x--x--x--x-------x-|
|-(12)--8--8--8--8--8--8--8-|--(8)--8--8--8--8-10-(10)--8-|
|---------------------------|-----------------------------|


                                            To Dbl. Coda
                            C5                          A5
|------------------------------|--------------------------|
|------------------------------|--------------------------|
|------------------------------|--------------------------|
|-(10)-10-10----10--10-(10)-10-|-(10)-10-10-10-10-10-10-7-|
|--(8)--8--8-----8---8--(8)-10-|-(10)-10-10-10-10-10-10-7-|
|--(8)--8--8-----8---8--(8)-10-|-(10)-10-10-10-10-10-10-7-|
|
|------------------------------|--------------------------|
|------------------------------|--------------------------|
|-(10)--9-(9)-7-(7)--5--(5)--5-|--(5)--5--5--5--5--5--5---|
|-------x-----x------x-------x-|-------x--x--x--x--x--x---|
|--(8)--7-(7)-5-(5)--3--(3)--3-|--(3)--3--3--3--3--3--3-0-|
|------------------------------|------------------------0-|


                            D.S. al Coda
                  Bb5                   D5
|---------------------|-------------------||
|---------------------|-------------------||
|---------------------|-------------------||
|-(7)-7-7-7-7-7-7--8--|-(8)-8-8-8-8-8-8-0-||
|-(7)-7-7-7-7-7-7--8--|-(8)-8-8-8-8-8-8-0-||
|-(7)-7-7-7-7-7-7--8--|-(8)-8-8-8-8-8-8-0-||
|
|---------------------|-------------------||
|---------------------|-------------------||
|---------------------|-------------------||
|-----------3-2-------|-------2---5-3-2-0-||
|-(0)-0-3-0-----3-----|-----3---3-------0-||
|-(0)-------------[3]-|-(3)-------------0-||


  &
  Bbsus2                    C5
|------------------------------|---------------------------||
|------------------------------|---------------------------||
|------------------------------|---------------------------||
|-(10)-10-10----10--10-(10)-10-|-(10)-10-10-10-10-10-10-10-||
|--(8)--8--8-----8---8--(8)-10-|-(10)-10-10-10-10-10-10-10-||
|--(8)--8--8-----8---8--(8)-10-|-(10)-10-10-10-10-10-10-10-||
|
|------------------------------|---------------------------||
|------------------------------|---------------------------||
|-(10)--9-(9)-7-(7)--5--(5)--5-|--(5)--5--5--5--5--5--5--5-||
|-------x-----x------x-------x-|-------x--x--x--x--x--x--x-||
|--(8)--7-(7)-5-(5)--3--(3)--3-|--(3)--3--3--3--3--3--3--3-||
|------------------------------|---------------------------||


 Interlude
  A5                      Bb5
                           PM------|                 PM------|
|----------|------------|-------------------------|-------------------------|
|----------|------------|-------------------------|-------------------------|
|----------|------------|-------------------------|-------------------------|
|-7--------|-(7)--------|--------------8--8--8--8-|--------------8--8--8--8-|
|-7--------|-(7)--------|--8--8--8--8--8--8--8--8-|--8--8--8--8--8--8--8--8-|
|-7--------|-(7)--------|--8--8--8--8--8--8--8--8-|--8--8--8--8--8--8--8--8-|
|
|----------|------------|-------------------------|-------------------------|
|----------|------------|-------------------------|-------------------------|
|-9--------|-(9)--------|-10-10-10-10-10-10-10-10-|-10-10-10-10-10-12-12-12-|
|-x--------|------------|--x--x--x--x--x--x--x--x-|--x--x--x--x--x--x--x--x-|
|-7--------|-(7)--------|--8--8--8--8--8--8--8--8-|--8--8--8--8--8-10-10-10-|
|----------|------------|-------------------------|-------------------------|


  C5
   PM------|                 PM------|
|-------------------------|-------------------------|
|-------------------------|-------------------------|
|-------------------------|-------------------------|
|-------------10-10-10-10-|-------------10-10-10-10-|
|-10-10-10-10-10-10-10-10-|-10-10-10-10-10-10-10-10-|
|-10-10-10-10-10-10-10-10-|-10-10-10-10-10-10-10-10-|
|
|-------------------------|-------------------------|
|-------------------------|-------------------------|
|--9--9--9--9--9--9--9--9-|--9--9--9--9--9--9--9--9-|
|--x--x--x--x--x--x--x--x-|--x--x--x--x--x--x--x--x-|
|--7--7--7--7--7--7--7--7-|--7--7--7--7--7--7--7--7-|
|-------------------------|-------------------------|


  D5
   PM------|                 PM------|
|-------------------------|-------------------------|
|-------------------------|-------------------------|
|-------------------------|-------------------------|
|-------------12-12-12-12-|-------------12-12-12-12-|
|-12-12-12-12-12-12-12-12-|-12-12-12-12-12-12-12-12-|
|-12-12-12-12-12-12-12-12-|-12-12-12-12-12-12-12-12-|
|
|-------------------------|-------------------------|
|-------------------------|-------------------------|
|-10-10-10-10-10-10-10-10-|--9--9--9--9--9--9--9--9-|
|--x--x--x--x--x--x--x--x-|--x--x--x--x--x--x--x--x-|
|--8--8--8--8--8--8--8--8-|--7--7--7--7--7--7--7--7-|
|-------------------------|-------------------------|


  F5
   PM------|                 PM------|
|-------------------------|-------------------------|
|-------------------------|-------------------------|
|-------------------------|-------------------------|
|-------------15-15-15-15-|-------------15-15-15-15-|
|-15-15-15-15-15-15-15-15-|-15-15-15-15-15-15-15-15-|
|-15-15-15-15-15-15-15-15-|-15-15-15-15-15-15-15-15-|
|
|-------------------------|-------------------------|
|-------------------------|-------------------------|
|--7--7--7--7--7--7--7--7-|--7--7--7--7--7--7--7--7-|
|--x--x--x--x--x--x--x--x-|--x--x--x--x--x--x--x--x-|
|--5--5--5--5--5--5--5--5-|--5--5--5--5--5--5--5--5-|
|-------------------------|-------------------------|


  Bb5
   PM------|                 PM------|
|-------------------------|-------------------------|
|-------------------------|-------------------------|
|-------------------------|-------------------------|
|--------------8--8--8--8-|--------------8--8--8--8-|
|--8--8--8--8--8--8--8--8-|--8--8--8--8--8--8--8--8-|
|--8--8--8--8--8--8--8--8-|--8--8--8--8--8--8--8--8-|
|
|-------------------------|-------------------------|
|-------------------------|-------------------------|
|-10-10-10-10-10-10-10-10-|-10-10-10-10-10-14-14-14-|
|--x--x--x--x--x--x--x--x-|--x--x--x--x--x--x--x--x-|
|--8--8--8--8--8--8--8--8-|--8--8--8--8--8-12-12-12-|
|-------------------------|-------------------------|


  H.=H
  C5
   PM------------------|
|-------------------------|-------------------------||
|-------------------------|-------------------------||
|-------------------------|-------------------------||
|-------------------------|-10-10-10-10-10-10-10-10-||
|-10-10-10-10-10-10-10-10-|-10-10-10-10-10-10-10-10-||
|-10-10-10-10-10-10-10-10-|-10-10-10-10-10-10-10-10-||
|
|-------------------------|-------------------------||
|-------------------------|-------------------------||
|-14-15-12-12-12-12-12-12-|-12-12-12-12-12-12-12-12-||
|--x--x--x--x--x--x--x--x-|--x--x--x--x--x--x--x--x-||
|-12-13-10-10-10-10-10-10-|-10-10-10-10-10-10-10-10-||
|-------------------------|-------------------------||


 Bridge
  Slower Q=155
  D5         C5  Bb5          F5E5D5             C5  Bb5             C5    D5
  Gtr I
                              PM|          PM--|
|------------------|----------------|------------------|----------------------|
|------------------|----------------|------------------|----------------------|
|------------------|----------------|------------------|----------------------|
|-12-12-12---10--8-|-(8)--8-------0-|-(0)--------10--8-|-(8)-8-8-8-8s10-10s12-|
|-12-12-12---10--8-|-(8)--8---3-2-0-|-(0)--0-0-0-10--8-|-(8)-8-8-8-8s10-10s12-|
|-12-12-12---10--8-|-(8)--8---3-2-0-|-(0)--0-0-0-10--8-|-(8)-8-8-8-8s10-10s12-|


  D5         C5  Bb5          F5E5A5                  Bb5             F5
  Gtr I
                              PM|
|------------------|----------------|-------------------|-------------------||
|------------------|----------------|-------------------|-------------------||
|------------------|----------------|-------------------|-------------------||
|-12-12-12---10--8-|-(8)--8-------7-|-(7)-7-7-7-7-7-7-8-|-(8)-8-8-8-8-3-3-3-||
|-12-12-12---10--8-|-(8)--8---3-2-7-|-(7)-7-7-7-7-7-7-8-|-(8)-8-8-8-8-3-3-3-||
|-12-12-12---10--8-|-(8)--8---3-2-7-|-(7)-7-7-7-7-7-7-8-|-(8)-8-8-8-8-3-3-3-||
|
| Gtr II
|------------------|----------------|-------------------|-------------------||
|------------------|----------------|-------------------|-------------------||
|------------------|----------------|-------------------|-------------------||
|--0--0--0---------|--------------7-|-(7)-7-7-7-7-7-7-8-|-(8)-8-8-8-8-3-3-3-||
|--0--0--0---------|--------------7-|-(7)-7-7-7-7-7-7-8-|-(8)-8-8-8-8-3-3-3-||
|--0--0--0---------|--------------7-|-(7)-7-7-7-7-7-7-8-|-(8)-8-8-8-8-3-3-3-||


  D5         C5  Bb5          F5E5D5             C5  Bb5             C5    D5
  Gtrs I, II
                              PM|          PM--|
|------------------|----------------|------------------|----------------------|
|------------------|----------------|------------------|----------------------|
|------------------|----------------|------------------|----------------------|
|-12-12-12---10--8-|-(8)--8-------0-|-(0)--------10--8-|-(8)-8-8-8-8s10-10s12-|
|-12-12-12---10--8-|-(8)--8---3-2-0-|-(0)--0-0-0-10--8-|-(8)-8-8-8-8s10-10s12-|
|-12-12-12---10--8-|-(8)--8---3-2-0-|-(0)--0-0-0-10--8-|-(8)-8-8-8-8s10-10s12-|


  D5             Bb5          F5E5D5             C5  Bb5             F5
                              PM|          PM--|                     PM--|
|------------------|----------------|------------------|-------------------|
|------------------|----------------|------------------|-------------------|
|------------------|----------------|------------------|-------------------|
|-12-12-12---10--8-|-(8)--8-------0-|-(0)--------10--8-|-(8)-8-8-8-8-------|
|-12-12-12---10--8-|-(8)--8---3-2-0-|-(0)--0-0-0-10--8-|-(8)-8-8-8-8-3-3-3-|
|-12-12-12---10--8-|-(8)--8---3-2-0-|-(0)--0-0-0-10--8-|-(8)-8-8-8-8-3-3-3-|


  H=H
  A5                      Bb5         N.C.
  Gtr I
|----------|------------|-----------|----------||
|----------|------------|-----------|----------||
|----------|------------|-----------|----------||
|-7--------|-(7)--------|--8--------|----------||
|-7--------|-(7)--------|--8--------|----------||
|-7--------|-(7)--------|--8--------|----------||
|
| Gtr II
|                                      ~~~~~
|----------|------------|-----------|----------||
|----------|------------|-----------|-10-------||
|-9--------|-(9)--------|-10--------|-12b14----||
|-x--------|------------|--x--------|----------||
|-7--------|-(7)--------|--8--------|----------||
|----------|------------|-----------|----------||


 Guitar Solo
  Faster Q=178
  D5
|---------------------------|---------------------------|
|---------------------------|---------------------------|
|---------------------------|---------------------------|
|-12-12-12-12-(12)-12-12-12-|-12-12-(12)-12-12-12-12-12-|
|-12-12-12-12-(12)-12-12-12-|-12-12-(12)-12-12-12-12-12-|
|-12-12-12-12-(12)-12-12-12-|-12-12-(12)-12-12-12-12-12-|
|
|---------------------------|---------------------------|
|-13p10----11p=10-----13p10-|----11p=10-----11p10-------|
|-------10---------10-------|-10---------10-------12p10-|
|---------------------------|---------------------------|
|---------------------------|---------------------------|
|---------------------------|---------------------------|


  Bb5
|--------------------------|-----------------------------|
|--------------------------|-----------------------------|
|--------------------------|-----------------------------|
|--8--8--8--8-(8)--8--8--8-|--8--8-(8)--8--8-----8--8--8-|
|--8--8--8--8-(8)--8--8--8-|--8--8-(8)--8--8-----8--8--8-|
|--8--8--8--8-(8)--8--8--8-|--8--8-(8)--8--8-----8--8--8-|
|
|--------------------------|-----------------------------|
|-13p10----11p10-----13p10-|----11p10-----10h11p10-------|
|-------10--------10-------|-10--------10----------12p10-|
|--------------------------|-----------------------------|
|--------------------------|-----------------------------|
|--------------------------|-----------------------------|


  D5
|---------------------------|---------------------------|
|---------------------------|---------------------------|
|---------------------------|---------------------------|
|-12-12-12-12-(12)-12-12-12-|-12-12-(12)-12-12-12-12-12-|
|-12-12-12-12-(12)-12-12-12-|-12-12-(12)-12-12-12-12-12-|
|-12-12-12-12-(12)-12-12-12-|-12-12-(12)-12-12-12-12-12-|
|
|---------------------------|---------------------------|
|-13p10----11p=10-----13p10-|----11p=10-----11p10-------|
|-------10---------10-------|-10---------10-------12p10-|
|---------------------------|---------------------------|
|---------------------------|---------------------------|
|---------------------------|---------------------------|


  Bb5
|--------------------------------|------------------------|
|--------------------------------|------------------------|
|--------------------------------|------------------------|
|--8-----8---8--8-(8)--8---8---8-|--8----8--(8)-8-8-8-8-8-|
|--8-----8---8--8-(8)--8---8---8-|--8----8--(8)-8-8-8-8-8-|
|--8-----8---8--8-(8)--8---8---8-|--8----8--(8)-8-8-8-8-8-|
|
|                                            ~~~~
|-----------------13-------------|------------------------|
|-13b15====(13)-------13r(13)-11-|-13b15---(13)-----------|
|--------------------------------|------------------------|
|--------------------------------|------------------------|
|--------------------------------|------------------------|
|--------------------------------|------------------------|


  D5
|-------------------------------------------------------|-------------------------------------|
|-------------------------------------------------------|-------------------------------------|
|-------------------------------------------------------|-------------------------------------|
|-12----12----12----12----(12)--------12----12----12----|-12-12-(12)--12---12--12-12-12-------|
|-12----12----12----12----(12)--------12----12----12----|-12-12-(12)--12---12--12-12-12-------|
|-12----12----12----12----(12)--------12----12----12----|-12-12-(12)--12---12--12-12-12-------|
|
|                                                                      ~~~~~~~~
|-13-12----10-------------------------------------------|-------------------------------------|
|-------------13-12----10-------------------------------|-------------------------------------|
|--------------------------12b14r(12)----10-12-10-------|-10-------------------------12b13.5==|
|----------------------------------------------------12-|----12-(12)-[12]-(12)----------------|
|-------------------------------------------------------|-------------------------------------|
|-------------------------------------------------------|-------------------------------------|


  Bb5
|---------------------------|----------------------------|
|---------------------------|----------------------------|
|---------------------------|----------------------------|
|---8--8--8--8-(8)--8--8--8-|--8--8-(8)--8--8--8---8--8--|
|---8--8--8--8-(8)--8--8--8-|--8--8-(8)--8--8--8---8--8--|
|---8--8--8--8-(8)--8--8--8-|--8--8-(8)--8--8--8---8--8--|
|
|--------10-----------10----|-12----10-------------------|
|--------------13-----------|--------------13------------|
|-(12)------12-----12----12-|----12-----12----12r(12)----|
|---------------------------|----------------------------|
|---------------------------|----------------------------|
|---------------------------|----------------------------|


  D5
|--------------------------------------------------|--------------------------------------------------|
|--------------------------------------------------|--------------------------------------------------|
|--------------------------------------------------|--------------------------------------------------|
|-12----12----12----12----(12)---12----12----12----|-12----12----(12)---12----12----12----12----12----|
|-12----12----12----12----(12)---12----12----12----|-12----12----(12)---12----12----12----12----12----|
|-12----12----12----12----(12)---12----12----12----|-12----12----(12)---12----12----12----12----12----|
|
|  T           T            T           T             T            T           T           T
|--------------------------------------------------|--------------------------------------------------|
|-17p10h===13-17p10h===13--17p10h===13-17p10h===13-|-18p10h===13--18p10h===13-18p10h===13-18p10h===13-|
|--------------------------------------------------|--------------------------------------------------|
|--------------------------------------------------|--------------------------------------------------|
|--------------------------------------------------|--------------------------------------------------|
|--------------------------------------------------|--------------------------------------------------|


  Bb5
                                             PM----|
|----------------------------|--------------------------||
|----------------------------|--------------------------||
|----------------------------|--------------------------||
|--8--------8--------8-------|--(8)-8-(8)---------------||
|--8--------8--------8-------|--(8)-8-(8)----8-8-8-8----||
|--8--------8--------8-------|--(8)-8-(8)----8-8-8-8----||
|
|----------------------------|--------------------------||
|-11-10----------------------|--------------------------||
|-------10-12--12b14---12b14-|-(12)---12p10-12----------||
|----------------------------|--------------------------||
|----------------------------|--------------------------||
|----------------------------|--------------------------||


 Bridge
  a Tempo Q=173
  D5  DmD5C D5  Bb5        C5            D5
|-----------------|--------------------------|
|-----------------|--------------------------|
|-----------------|--------------------------|
|-----------------|--------------------------|
|-----------------|--------------------------|
|-----------------|--------------------------|
|
| PM|                                    PM---
|-----------------|--------------------------|
|-----6---5-------|--------------------------|
|-----7---5-------|--------------------------|
|---------------8-|-(8)-8--10-(10)-10-10-----|
|-0-0---0---0-0-8-|-(8)-8--10-(10)-10-10-0-0-|
|-0-0---0---0-0-8-|-(8)-8--10-(10)-10-10-0-0-|


      DmD5C D5  F5            Bb5        D5
|------------------|---------------------------|
|------------------|---------------------------|
|------------------|---------------------------|
|------------------|---------------------0-----|
|------------------|---------------------0-----|
|------------------|----------12\--------0-----|
|
|---|                                    PM|
|------------------|---------------------------|
|-----6---5--------|---------------------------|
|-----7---5-----10-|-(10)-10-------------------|
|---------------10-|-(10)-10---8--(8)--8-------|
|-0-0---0---0-0--8-|--(8)--8---8--(8)--8-0-0---|
|-0-0---0---0-0----|-----------8--(8)--8-0-0---|


  D5    DmD5C D5  Bb5        C5            A5
|-------------------|------------------------|
|-------------------|------------------------|
|-------------------|------------------------|
|-(0)---------------|-(0)------------------7-|
|-(0)---------------|-(0)------------------7-|
|-(0)---------------|-(0)------------------7-|
|
|  PM-|
|-------------------|------------------------|
|-------6---5-------|------------------------|
|-------7---5-------|------------------------|
|-----------------8-|-(8)-8--10-(10)-10-10---|
|--0--0---0---0-0-8-|-(8)-8--10-(10)-10-10-0-|
|--0--0---0---0-0-8-|-(8)-8--10-(10)-10-10-0-|


                     D.S.S. al Dbl. Coda
                  Bb5                   D5
|---------------------|--------------------||
|---------------------|--------------------||
|---------------------|--------------------||
|-(7)--------------8--|-(8)--------------0-||
|-(7)--------------8--|-(8)--------------0-||
|-(7)--------------8--|-(8)--------------0-||
|
|---------------------|--------------------||
|---------------------|--------------------||
|---------------------|-----------------14-||
|-----------3-2-------|-------2---5-3-2--x-||
|-(0)-0-3-0-----3-[1]-|-(1)-3---3-------12-||
|-(0)-----------------|--------------------||


 Outro
  &&
  A5              Bb5                   D5
|---------------------|-------------------|-------------|-----*|
|---------------------|-------------------|-------------|-----*|
|---------------------|-------------------|-------------|-----*|
|-(7)-7-7-7-7-7-7--8--|-(8)-8-8-8-8-8-8-0-|-(0)--0------|-----*|
|-(7)-7-7-7-7-7-7--8--|-(8)-8-8-8-8-8-8-0-|-(0)--0------|-----*|
|-(7)-7-7-7-7-7-7--8--|-(8)-8-8-8-8-8-8-0-|-(0)--0------|-----*|
|
|---------------------|-------------------|-------------|-----*|
|---------------------|-------------------|-------------|-----*|
|---------------------|-------------------|-------------|-----*|
|-----------3-2-------|-------2---5-3-2-0-|-(0)--0------|-----*|
|-(0)-0-3-0-----3-[1]-|-(1)-3---3-------0-|-(0)--0------|-----*|
|-(0)-----------------|-----------------0-|-(0)--0------|-----*|


4. THIS FLESH A TOMB

Gtr I (C G C F A D)
Gtr II (C G C F A D)
Gtr III (C G C F A D) 
Gtr IV (C G C F A D) 
Gtr V (C G C F A D) 

  Gtr I
|-----------------|---------------------------||
|-----------------|---------------------------||
|-----------------|---------------------------||
|-7-7-7-7-7-7-7-7-|-7-7-7-7-7-7-7-7-7-7-7-7-7-||
|-4-4-4-4-4-4-4-4-|-4-4-4-4-4-4-4-4-4-4-4-4-4-||
|-4-4-4-4-4-4-4-4-|-4-4-4-4-4-4-4-4-4-4-4-4-4-||


   Verse
    $
    F#m                        D5      F#m                        D5
    Gtrs I, II
||------------------|----------------|-----------------|----------------|
||o-----------------|----------------|-----------------|----------------|
||------------------|----------------|-----------------|----------------|
||--7-7-7-7-7-7-7-7-|--7-7-7-7-7-7-7-|-7-7-7-7-7-7-7-7-|--7-7-7-7-7-7-7-|
||o-4-4-4-4-4-4-4-4-|--4-4-4-4-0-0-0-|-4-4-4-4-4-4-4-4-|--4-4-4-4-0-0-0-|
||--4-4-4-4-4-4-4-4-|--4-4-4-4-0-0-0-|-4-4-4-4-4-4-4-4-|--4-4-4-4-0-0-0-|


  1.
  N.C.
|-------------------------|-----------------------|
|-------------------------|-----------------------|
|-11-11-11-11-11-11-11-11-|--11-11-11-11-11-11-11-|
|--x--x--x--x--x--x--x--x-|---x--x--x--x--x--x--x-|
|--9--9--9--9--9--9--9--9-|---9--9--9--9--9--9--9-|
|-------------------------|-----------------------|


|-----------------|-------------------------||
|-----------------|------------------------o||
|-9-9-9-9-9-9-9-9-|--14-14-14-14-14-14-14---||
|-x-x-x-x-x-x-x-x-|---x--x--x--x--x--x--x---||
|-7-7-7-7-7-7-7-7-|--12-12-12-12-12-12-12--o||
|-----------------|-------------------------||


  2.
  N.C.
  Gtr I
|-------------------------|-----------------------|
|-------------------------|-----------------------|
|--7--7--7--7--7--7--7--7-|---7--7--7--7--7--7--7-|
|--x--x--x--x--x--x--x--x-|---x--x--x--x--x--x--x-|
|--5--5--5--5--5--5--5--5-|---5--5--5--5--5--5--5-|
|-------------------------|-----------------------|
|
| Gtr II
|-------------------------|-----------------------|
|-------------------------|-----------------------|
|-11-11-11-11-11-11-11-11-|--11-11-11-11-11-11-11-|
|--x--x--x--x--x--x--x--x-|---x--x--x--x--x--x--x-|
|--9--9--9--9--9--9--9--9-|---9--9--9--9--9--9--9-|
|-------------------------|-----------------------|


|-----------------|------------------------||
|-----------------|------------------------||
|-5-5-5-5-5-5-5-5-|--10-10-10-10-10-10-10--||
|-x-x-x-x-x-x-x-x-|---x--x--x--x--x--x--x--||
|-3-3-3-3-3-3-3-3-|---8--8--8--8--8--8--8--||
|-----------------|------------------------||
|
|-----------------|------------------------||
|-----------------|------------------------||
|-9-9-9-9-9-9-9-9-|--14-14-14-14-14-14-14--||
|-x-x-x-x-x-x-x-x-|---x--x--x--x--x--x--x--||
|-7-7-7-7-7-7-7-7-|--12-12-12-12-12-12-12--||
|-----------------|------------------------||


   Pre-Chorus
    N.C.                  F#5             N.C.                  F#5
    Gtrs I, II
                          PM----------|                         PM----------|
||------------------|-------------------|-----------------|-------------------|
||o-----------------|-------------------|-----------------|-------------------|
||------------------|-------------------|-----------------|-------------------|
||------------------|-------------------|-----------------|-------------------|
||o-------4h7p4-----|-----4-4-4-4-4-4-4-|-------4h7p4-----|-----4-4-4-4-4-4-4-|
||--4h7p4-------7-4-|-(4)-4-4-4-4-4-4-4-|-4h7p4-------7-4-|-(4)-4-4-4-4-4-4-4-|


  1.
  N.C.                   D5
  Gtr I
                         PM-----------|
|------------------|--------------------|
|------------------|--------------------|
|------------------|--------------------|
|------------------|--------------------|
|-------4h=7p4-----|-----0--0-0-0-0-0-0-|
|-0h7p0--------7-0-|-(0)-0--0-0-0-0-0-0-|
|
| Gtr II
|------------------|--------------------|
|---------10-9-----|-------10-9---------|
|---x-6-x------x-x-|--6--x------x-x-6-x-|
|------------------|--------------------|
|------------------|--------------------|
|------------------|--------------------|


  N.C.                    D5
                          PM-----------|
|-------------------|----------------------||
|-------------------|---------------------o||
|-------------------|----------------------||
|-------------------|----------------------||
|--------4h7p4------|-----0-0-0--0-0-0-0--o||
|--0h7p0--------7-0-|-(0)-0-0-0--0-0-0-0---||
|
|-------------------|----------------------||
|-10-9---------10-9-|-----------10-9------o||
|------x-x-6-x------|--x--x-6-x------6-----||
|-------------------|----------------------||
|-------------------|---------------------o||
|-------------------|----------------------||


  2.
  N.C.                   D5
                         PM-----------|
|------------------|--------------------|
|------------------|--------------------|
|------------------|--------------------|
|------------------|--------------------|
|-------4h=7p4-----|-----0--0-0-0-0-0-0-|
|-0h7p0--------7-0-|-(0)-0--0-0-0-0-0-0-|
|
|------------------|--------------------|
|---------10-9-----|-------10-9---------|
|---x-6-x------x-x-|--6--x------x-x-6-x-|
|------------------|--------------------|
|------------------|--------------------|
|------------------|--------------------|


  N.C.                    D5    E5      D5
|-------------------|-----------------------||
|-------------------|-----------------------||
|-------------------|-----------------------||
|-------------------|-----0-0-0--2--2-2--0--||
|--------4h7p4------|-----0-0-0--2--2-2--0--||
|--0h7p0--------7-0-|-(0)-0-0-0--2--2-2--0--||
|
|-------------------|-----------------------||
|-10-9---------10-9-|-----------12-10-9-10--||
|------x-x-6-x------|--x--x-6-x-------------||
|-------------------|-----------------------||
|-------------------|-----------------------||
|-------------------|-----------------------||


 Chorus
  D5                            F#5
|-------------|-------------------|
|-------------|-------------------|
|-------------|-------------------|
|--(0)--------|-(0)-----------x-4-|
|--(0)--------|-(0)-----------x-4-|
|--(0)--------|-(0)-----------x-4-|
|
|               Gtr III       Gtr I
|                TPTPTPTPTPTP
|-------------|-------------------|
|-(10)--------|-------------------|
|-------------|-------------------|
|-------------|--xSxSxSxSxSx\-x-4-|
|-------------|--xSxSxSxSxSx\-x-4-|
|-------------|--xSxSxSxSxSx\-x-4-|


          E5        F#5         A5        D5
                                          PM|
|---------------------|-----------------------|
|---------------------|-----------------------|
|---------------------|-----------------------|
|-(4)-4-x-2-(2)-2-x-4-|-(4)-4-x-7-(7)-7-7-----|
|-(4)-4-x-2-(2)-2-x-4-|-(4)-4-x-7-(7)-7-7-0-0-|
|-(4)-4-x-2-(2)-2-x-4-|-(4)-4-x-7-(7)-7-7-0-0-|
|
|I
|                                         PM|
|---------------------|-----------------------|
|---------------------|-----------------------|
|---------------------|-----------------------|
|-(4)-4-x-2-(2)-2-x-4-|-(4)-4-x-7-(7)-7-7-----|
|-(4)-4-x-2-(2)-2-x-4-|-(4)-4-x-7-(7)-7-7-0-0-|
|-(4)-4-x-2-(2)-2-x-4-|-(4)-4-x-7-(7)-7-7-0-0-|


  D5                     F#5         E5        F#5         B5        D5
  Gtrs I, II
  PM|                                                                PM|
|------------|-------------|---------------------|-----------------------|
|------------|-------------|---------------------|-----------------------|
|-----7------|-(7)---------|---------------------|-----------------------|
|-----0------|-(0)-------4-|-(4)-4-x-2-(2)-2-x-4-|-(4)-4-x-9-(9)-9-9-----|
|-0-0-0------|-(0)-------4-|-(4)-4-x-2-(2)-2-x-4-|-(4)-4-x-9-(9)-9-9-0-0-|
|-0-0-0------|-(0)-------4-|-(4)-4-x-2-(2)-2-x-4-|-(4)-4-x-9-(9)-9-9-0-0-|


  D5                     F#5         E5        F#5         A5        D5
  PM|                                                                PM|
|------------|-------------|---------------------|-----------------------|
|------------|-------------|---------------------|-----------------------|
|-----7------|-(7)---------|---------------------|-----------------------|
|-----0------|-(0)-------4-|-(4)-4-x-2-(2)-2-x-4-|-(4)-4-x-7-(7)-7-7-----|
|-0-0-0------|-(0)-------4-|-(4)-4-x-2-(2)-2-x-4-|-(4)-4-x-7-(7)-7-7-0-0-|
|-0-0-0------|-(0)-------4-|-(4)-4-x-2-(2)-2-x-4-|-(4)-4-x-7-(7)-7-7-0-0-|


                                               D.S.
  D5                     E5
  PM|
|------------|-------------|------------|--------------||
|------------|-------------|------------|--------------||
|-----7------|-(7)---------|------------|--------------||
|-----0------|-(0)-------2-|-(2)--------|-2--2--2--2---||
|-0-0-0------|-(0)-------2-|-(2)--------|-2--2--2--2---||
|-0-0-0------|-(0)-------2-|-(2)--------|-2--2--2--2---||


   Bridge
    F#5                      N.C.
    Gtr I
||-----------|-------------|-------------|-------------|
||o----------|-------------|-------------|-------------|
||-----------|-------------|-------------|-------------|
||--4--------|-------------|-------------|-------------|
||o-4--------|-(4)---------|-------------|-------------|
||--4--------|-(4)---------|-(4)------4--|--7-------7--|
|
|   Gtr II
||-----------|-------------|-------------|-------------|
||o----------|-------------|-------------|-------------|
||--6--------|-(6)------6--|--6----------|-(6)---------|
||--x--------|----------x--|--x----------|-------------|
||o-4--------|-(4)------4--|--4----------|-(4)---------|
||-----------|-------------|-------------|-------------|


  D5                       E5
|----------|-------------|-----------|-------------||
|----------|-------------|-----------|------------o||
|----------|-------------|-----------|-------------||
|-0--------|-(0)---------|-2---------|-2-----------||
|-0--------|-(0)---------|-2---------|-2----------o||
|-0--------|-(0)---------|-2---------|-2-----------||
|
|----------|-------------|-----------|-------------||
|----------|-------------|-----------|------------o||
|-7--------|-(7)------7--|-6------6--|-5------5----||
|-x--------|----------x--|-x------x--|-x------x----||
|-5--------|-(5)------5--|-4------4--|-3------3---o||
|----------|-------------|-----------|-------------||


 Guitar Solo
  Faster Q=195
  N.C.
  Gtr I
|-------------------------|-------------------------|
|-------------------------|-------------------------|
|-------------------------|-------------------------|
|-7-4-4-7-4-4-7-4-4-7-4-4-|-7-4-4-7-4-4-7-4-4-7-4-4-|
|-------------------------|-------------------------|
|-------------------------|-------------------------|
|
| Gtr II
|-------------------------|-------------------------|
|-------------------------|-------------------------|
|-------------------------|-------------------------|
|-0h4p0-0h4p0-0h4p0-0h4p0-|-0h4p0-0h4p0-0h4p0-0h4p0-|
|-------------------------|-------------------------|
|-------------------------|-------------------------|


  N.C.
|-------------------------|-------------------------|
|-------------------------|-------------------------|
|-------------------------|-------------------------|
|-9-7-7-9-7-7-9-7-7-9-7-7-|-9-7-7-9-7-7-9-7-7-9-7-7-|
|-------------------------|-------------------------|
|-------------------------|-------------------------|
|
|-------------------------|-------------------------|
|-------------------------|-------------------------|
|-------------------------|-------------------------|
|-2h6p2-2h6p2-2h6p2-2h6p2-|-2h6p2-2h6p2-2h6p2-2h6p2-|
|-------------------------|-------------------------|
|-------------------------|-------------------------|


  N.C.
|-------------------------|-------------------------|
|-------------------------|-------------------------|
|-------------------------|-------------------------|
|-4-0-0-4-0-0-4-0-0-4-0-0-|-4-0-0-4-0-0-4-0-0-4-0-0-|
|-------------------------|-------------------------|
|-------------------------|-------------------------|
|
|-------------------------|-------------------------|
|-------------------------|-------------------------|
|-------------------------|-------------------------|
|-4h7p4-4h7p4-4h7p4-4h7p4-|-4h7p4-4h7p4-4h7p4-4h7p4-|
|-------------------------|-------------------------|
|-------------------------|-------------------------|


  N.C.
|-----------------------------|-----------------------------|
|-----------------------------|-----------------------------|
|-----------------------------|-----------------------------|
|-6--2-2-6--2-2-6--2-2-6--2-2-|-6--2-2-6--2-2-6--2-2-6--2-2-|
|-----------------------------|-----------------------------|
|-----------------------------|-----------------------------|
|
|-----------------------------|-----------------------------|
|-----------------------------|-----------------------------|
|-----------------------------|-----------------------------|
|-7h11p7-7h11p7-7h11p7-7h11p7-|-7h11p7-7h11p7-7h11p7-7h11p7-|
|-----------------------------|-----------------------------|
|-----------------------------|-----------------------------|


  N.C.
|-------------------------|-------------------------|
|-------------------------|-------------------------|
|-------------------------|-------------------------|
|-7-4-4-7-4-4-7-4-4-7-4-4-|-7-4-4-7-4-4-7-4-4-7-4-4-|
|-------------------------|-------------------------|
|-------------------------|-------------------------|
|
|-------------------------|-------------------------|
|-------------------------|-------------------------|
|-------------------------|-------------------------|
|-4h7p4-4h7p4-4h7p4-4h7p4-|-4h7p4-4h7p4-4h7p4-4h7p4-|
|-------------------------|-------------------------|
|-------------------------|-------------------------|


  N.C.
|-------------------------|-------------------------|
|-------------------------|-------------------------|
|-------------------------|-------------------------|
|-9-7-7-9-7-7-9-7-7-9-7-7-|-9-7-7-9-7-7-9-7-7-9-7-7-|
|-------------------------|-------------------------|
|-------------------------|-------------------------|
|
|-------------------------|-------------------------|
|-------------------------|-------------------------|
|-------------------------|-------------------------|
|-2h6p2-2h6p2-2h6p2-2h6p2-|-2h6p2-2h6p2-2h6p2-2h6p2-|
|-------------------------|-------------------------|
|-------------------------|-------------------------|


  N.C.
|-------------------------|-------------------------|
|-------------------------|-------------------------|
|-------------------------|-------------------------|
|-4-0-0-4-0-0-4-0-0-4-0-0-|-4-0-0-4-0-0-4-0-0-4-0-0-|
|-------------------------|-------------------------|
|-------------------------|-------------------------|
|
|-------------------------|-------------------------|
|-------------------------|-------------------------|
|-------------------------|-------------------------|
|-0h4p0-0h4p0-0h4p0-0h4p0-|-0h4p0-0h4p0-0h4p0-0h4p0-|
|-------------------------|-------------------------|
|-------------------------|-------------------------|


  N.C.
|-------------------------|-------------------------||
|-------------------------|-------------------------||
|-------------------------|-------------------------||
|-6-2-2-6-2-2-6-2-2-6-2-2-|-6-2-2-6-2-2-6-2-2-6-2-2-||
|-------------------------|-------------------------||
|-------------------------|-------------------------||
|
|-------------------------|-------------------------||
|-------------------------|-------------------------||
|-------------------------|-------------------------||
|-2h6p2-2h6p2-2h6p2-2h6p2-|-2h6p2-2h6p2-2h6p2-2h6p2-||
|-------------------------|-------------------------||
|-------------------------|-------------------------||


   Interlude
    Faster Q=198
    D5
    Gtr I
||--------------------------|---------------------------|
||o-------------------------|---------------------------|
||--11-11-11-11-(11)-11-11--|-(11)-11-11-11-11-11-11-11-|
||---x--x--x--x-------x--x--|-------x--x--x--x--x--x--x-|
||o--9--9--9--9--(9)--9--9--|--(9)--9--9--9--9--9--9--9-|
||--------------------------|---------------------------|
|
|   Gtr II
||--------------------------|---------------------------|
||o-------------------------|---------------------------|
||--11-11-11-11-(11)-11-11--|-(11)-11-11-11-11-11-11-11-|
||---x--x--x--x-------x--x--|-------x--x--x--x--x--x--x-|
||o--9--9--9--9--(9)--9--9--|--(9)--9--9--9--9--9--9--9-|
||--------------------------|---------------------------|
|
|   Gtr IV
||--------------------------|---------------------------|
||o-------------------------|---------------------------|
||--------------------------|---------------------------|
||---0--0--0--0--(0)--0--0--|--(0)--0--0-----0--0--0--0-|
||o--0--0--0--0--(0)--0--0--|--(0)--0--0-----0--0--0--0-|
||---0--0--0--0--(0)--0--0--|--(0)--0--0-----0--0--0--0-|


  E5
|-------------------------|---------------------------|
|-------------------------|---------------------------|
|--7--7--7--7--(7)--7--7--|--(7)--7--7--7--7--7--7--7-|
|--x--x--x--x-------x--x--|-------x--x--x--x--x--x--x-|
|--5--5--5--5--(5)--5--5--|--(5)--5--5--5--5--5--5--5-|
|-------------------------|---------------------------|
|
|-------------------------|---------------------------|
|-------------------------|---------------------------|
|-13-13-13-13-(13)-13-14--|-(14)-14-14-14-14-14-14-14-|
|--x--x--x--x-------x--x--|-------x--x--x--x--x--x--x-|
|-11-11-11-11-(11)-11-12--|-(12)-12-12-12-12-12-12-12-|
|-------------------------|---------------------------|
|
|-------------------------|---------------------------|
|-------------------------|---------------------------|
|-------------------------|---------------------------|
|--2--2--2--2--(2)--2--2--|--(2)--2--2-----2--2--2--2-|
|--2--2--2--2--(2)--2--2--|--(2)--2--2-----2--2--2--2-|
|--2--2--2--2--(2)--2--2--|--(2)--2--2-----2--2--2--2-|


  F#5                                    A5
|------------------|-------------------|------------------|--------------------|
|------------------|-------------------|------------------|--------------------|
|-6-6-6-6-(6)-6-6--|-(6)-6-6-6-6-6-6-6-|-7-7-7-7-(7)-7-6--|-(6)-6-6-6-6-6-6-6--|
|-x-x-x-x-----x-x--|-----x-x-x-x-x-x-x-|-x-x-x-x-----x-x--|-----x-x-x-x-x-x-x--|
|-4-4-4-4-(4)-4-4--|-(4)-4-4-4-4-4-4-4-|-5-5-5-5-(5)-5-4--|-(4)-4-4-4-4-4-4-4--|
|------------------|-------------------|------------------|--------------------|
|
|------------------|-------------------|------------------|--------------------|
|------------------|-------------------|------------------|--------------------|
|-9-9-9-9-(9)-9-9--|-(9)-9-9-9-9-9-9-9-|-7-7-7-7-(7)-7-6--|-(6)-6-6-6-6-6-6-6--|
|-x-x-x-x-----x-x--|-----x-x-x-x-x-x-x-|-x-x-x-x-----x-x--|-----x-x-x-x-x-x-x--|
|-7-7-7-7-(7)-7-7--|-(7)-7-7-7-7-7-7-7-|-5-5-5-5-(5)-5-4--|-(4)-4-4-4-4-4-4-4--|
|------------------|-------------------|------------------|--------------------|
|
|------------------|-------------------|------------------|--------------------|
|------------------|-------------------|------------------|--------------------|
|------------------|-------------------|------------------|--------------------|
|-4-4-4-4-(4)-4-4--|-(4)-4-4---4-4-4-4-|-7-7-7-7-(7)-7-7--|-(7)-7-7---7-7-7-7--|
|-4-4-4-4-(4)-4-4--|-(4)-4-4---4-4-4-4-|-7-7-7-7-(7)-7-7--|-(7)-7-7---7-7-7-7--|
|-4-4-4-4-(4)-4-4--|-(4)-4-4---4-4-4-4-|-7-7-7-7-(7)-7-7--|-(7)-7-7---7-7-7-7--|


  D5
|-------------------------|---------------------------|
|-------------------------|---------------------------|
|-11-11-11-11-(11)-11-11--|-(11)-11-11-11-11-11-11-11-|
|--x--x--x--x-------x--x--|-------x--x--x--x--x--x--x-|
|--9--9--9--9--(9)--9--9--|--(9)--9--9--9--9--9--9--9-|
|-------------------------|---------------------------|
|
|-------------------------|---------------------------|
|-------------------------|---------------------------|
|-11-11-11-11-(11)-11-11--|-(11)-11-11-11-11-11-11-11-|
|--x--x--x--x-------x--x--|-------x--x--x--x--x--x--x-|
|--9--9--9--9--(9)--9--9--|--(9)--9--9--9--9--9--9--9-|
|-------------------------|---------------------------|
|
|-------------------------|---------------------------|
|-------------------------|---------------------------|
|-------------------------|---------------------------|
|--0--0--0--0--(0)--0--0--|--(0)--0--0-----0--0--0--0-|
|--0--0--0--0--(0)--0--0--|--(0)--0--0-----0--0--0--0-|
|--0--0--0--0--(0)--0--0--|--(0)--0--0-----0--0--0--0-|


  E5
|-------------------------|----------------------------|
|-------------------------|----------------------------|
|--7--7--7--7--(7)--7--7--|--(7)--7--7--7--7--7--7--7--|
|--x--x--x--x-------x--x--|-------x--x--x--x--x--x--x--|
|--5--5--5--5--(5)--5--5--|--(5)--5--5--5--5--5--5--5--|
|-------------------------|----------------------------|
|
|-------------------------|----------------------------|
|-------------------------|----------------------------|
|-13-13-13-13-(13)-13-14--|-(14)-14-14-14-14-14-14-14--|
|--x--x--x--x-------x--x--|-------x--x--x--x--x--x--x--|
|-11-11-11-11-(11)-11-12--|-(12)-12-12-12-12-12-12-12--|
|-------------------------|----------------------------|
|
|-------------------------|----------------------------|
|-------------------------|----------------------------|
|-------------------------|----------------------------|
|--2--2--2--2--(2)--2--2--|--(2)--2--2-----2--2--2--2--|
|--2--2--2--2--(2)--2--2--|--(2)--2--2-----2--2--2--2--|
|--2--2--2--2--(2)--2--2--|--(2)--2--2-----2--2--2--2--|


  F#5
|------------------|-------------------|
|------------------|-------------------|
|-6-6-6-6-(6)-6-6--|-(6)-6-6-6-6-6-6-6-|
|-x-x-x-x-----x-x--|-----x-x-x-x-x-x-x-|
|-4-4-4-4-(4)-4-4--|-(4)-4-4-4-4-4-4-4-|
|------------------|-------------------|
|
|------------------|-------------------|
|------------------|-------------------|
|-9-9-9-9-(9)-9-9--|-(9)-9-9-9-9-9-9-9-|
|-x-x-x-x-----x-x--|-----x-x-x-x-x-x-x-|
|-7-7-7-7-(7)-7-7--|-(7)-7-7-7-7-7-7-7-|
|------------------|-------------------|
|
|------------------|-------------------|
|------------------|-------------------|
|------------------|-------------------|
|-4-4-4-4-(4)-4-4--|-(4)-4-4---4-4-4-4-|
|-4-4-4-4-(4)-4-4--|-(4)-4-4---4-4-4-4-|
|-4-4-4-4-(4)-4-4--|-(4)-4-4---4-4-4-4-|


  A5
|-------------------------|----------------------||
|-------------------------|---------------------o||
|--7--7--7--7--(7)--7--6--|--(6)-6-6-6-6-6-6-6---||
|--x--x--x--x-------x--x--|------x-x-x-x-x-x-x---||
|--5--5--5--5--(5)--5--4--|--(4)-4-4-4-4-4-4-4--o||
|-------------------------|----------------------||
|
|-------------------------|----------------------||
|-------------------------|---------------------o||
|-14-14-14-14-(14)-14-13--|-(13)-9-9-9-9-9-9-9---||
|--x--x--x--x-------x--x--|------x-x-x-x-x-x-x---||
|-12-12-12-12-(12)-12-11--|-(11)-7-7-7-7-7-7-7--o||
|-------------------------|----------------------||
|
|-------------------------|----------------------||
|-------------------------|---------------------o||
|-------------------------|----------------------||
|--7--7--7--7--(7)--7--7--|--(7)-7-7---7-7-7-7---||
|--7--7--7--7--(7)--7--7--|--(7)-7-7---7-7-7-7--o||
|--7--7--7--7--(7)--7--7--|--(7)-7-7---7-7-7-7---||


 Outro
  Half-Time Q=96
  Dmaj7sus2
  Gtrs I, II
                                 >
|-----------------------------|-------------------------------|
|-----------------------------|-------------------------------|
|-----------------------------|-------------------------------|
|-0---------------------------|-(0)---------------------------|
|-0---------------------------|-(0)---------------------------|
|-0---------------------------|-(0)---------------------------|
|
| Gtr V
|-0-0-0-0-0-0-0-0-0-0-0-0-0-0-|--0--0-0-0-0-0-0-0-0-0-0-0-0-0-|
|-5-5-5-5-5-5-5-5-5-5-5-5-5-5-|--5--5-5-5-5-5-5-5-5-5-5-5-5-5-|
|-6-6-6-6-6-6-6-6-6-6-6-6-6-6-|--6--6-6-6-6-6-6-6-6-6-6-6-6-6-|
|-7-7-7-7-7-7-7-7-7-7-7-7-7-7-|--7--7-7-7-7-7-7-7-7-7-7-7-7-7-|
|-0-0-0-0-0-0-0-0-0-0-0-0-0-0-|--0--0-0-0-0-0-0-0-0-0-0-0-0-0-|
|-0-0-0-0-0-0-0-0-0-0-0-0-0-0-|--0--0-0-0-0-0-0-0-0-0-0-0-0-0-|


  F#m11
  Gtr V
|-0-0-0-0-0-0-0-0-0-0-0-0-0-0-|-0-0-0-0-0-0-0-0-0-0-0-0-0-0-|
|-0-0-0-0-0-0-0-0-0-0-0-0-0-0-|-0-0-0-0-0-0-0-0-0-0-0-0-0-0-|
|-6-6-6-6-6-6-6-6-6-6-6-6-6-6-|-6-6-6-6-6-6-6-6-6-6-6-6-6-6-|
|-7-7-7-7-7-7-7-7-7-7-7-7-7-7-|-7-7-7-7-7-7-7-7-7-7-7-7-7-7-|
|-4-4-4-4-4-4-4-4-4-4-4-4-4-4-|-4-4-4-4-4-4-4-4-4-4-4-4-4-4-|
|-4-4-4-4-4-4-4-4-4-4-4-4-4-4-|-4-4-4-4-4-4-4-4-4-4-4-4-4-4-|


    H.=H
    Dmaj7sus2
||--0-0-0-0-0-0-0-0-0-0-0-0-0-0-|-0-0-0-0-0-0-0-0-0-0-0-0-0-0--|
||o-5-5-5-5-5-5-5-5-5-5-5-5-5-5-|-5-5-5-5-5-5-5-5-5-5-5-5-5-5--|
||--6-6-6-6-6-6-6-6-6-6-6-6-6-6-|-6-6-6-6-6-6-6-6-6-6-6-6-6-6--|
||--7-7-7-7-7-7-7-7-7-7-7-7-7-7-|-7-7-7-7-7-7-7-7-7-7-7-7-7-7--|
||o-0-0-0-0-0-0-0-0-0-0-0-0-0-0-|-0-0-0-0-0-0-0-0-0-0-0-0-0-0--|
||--0-0-0-0-0-0-0-0-0-0-0-0-0-0-|-0-0-0-0-0-0-0-0-0-0-0-0-0-0--|


  F#m11
                                                             3x
|-0-0-0-0-0-0-0-0-0-0-0-0-0-0-|-0-0-0-0-0-0-0-0-0-0-0-0-0-0--||
|-0-0-0-0-0-0-0-0-0-0-0-0-0-0-|-0-0-0-0-0-0-0-0-0-0-0-0-0-0-o||
|-6-6-6-6-6-6-6-6-6-6-6-6-6-6-|-6-6-6-6-6-6-6-6-6-6-6-6-6-6--||
|-7-7-7-7-7-7-7-7-7-7-7-7-7-7-|-7-7-7-7-7-7-7-7-7-7-7-7-7-7--||
|-4-4-4-4-4-4-4-4-4-4-4-4-4-4-|-4-4-4-4-4-4-4-4-4-4-4-4-4-4-o||
|-4-4-4-4-4-4-4-4-4-4-4-4-4-4-|-4-4-4-4-4-4-4-4-4-4-4-4-4-4--||


5. YOU ECLIPSED BY ME

Gtr I (C G C F A D) 
Gtr II (C G C F A D) 
Gtr III (C G C F A D) 

   4/4
    Gtr I
                PM--------|               PM--------|
||--------------------------|-------------------------|
||o-------------------------|-------------------------|
||--------10-10-------------|-------10-10-------------|
||--0-0-0--x--x-------------|-0-0-0--x--x-------------|
||o-0-0-0--8--8-0-0-0-0-0-0-|-0-0-0--8--8-0-0-0-0-0-0-|
||--0-0-0-------0-0-0-0-0-0-|-0-0-0-------0-0-0-0-0-0-|
|
|   Gtr II
|               PM--------|               PM--------|
||--------------------------|-------------------------|
||o-------------------------|-------------------------|
||--------14-14-------------|-------14-14-------------|
||--0-0-0--x--x-------------|-0-0-0--x--x-------------|
||o-0-0-0-12-12-0-0-0-0-0-0-|-0-0-0-12-12-0-0-0-0-0-0-|
||--0-0-0-------0-0-0-0-0-0-|-0-0-0-------0-0-0-0-0-0-|


  D5    N.C.  D5                  N.C.  D5
              PM--------|               PM--------|
|-------------------------|-------------------------|
|-------------------------|-------------------------|
|--------9--9-------------|--------9--9-------------|
|-0-0-0--x--x-------------|-0-0-0--x--x-------------|
|-0-0-0--7--7-0-0-0-0-0-0-|-0-0-0--7--7-0-0-0-0-0-0-|
|-0-0-0-------0-0-0-0-0-0-|-0-0-0-------0-0-0-0-0-0-|
|
|             PM--------|               PM--------|
|-------------------------|-------------------------|
|-------------------------|-------------------------|
|-------13-13-------------|-------13-13-------------|
|-0-0-0--x--x-------------|-0-0-0--x--x-------------|
|-0-0-0-11-11-0-0-0-0-0-0-|-0-0-0-11-11-0-0-0-0-0-0-|
|-0-0-0-------0-0-0-0-0-0-|-0-0-0-------0-0-0-0-0-0-|


  Bb5   Bbmaj7Bb5                 Bbmaj7Bb5
  Gtrs I, II
              PM--------|               PM--------|
|-------------------------|-------------------------|
|-------------------------|-------------------------|
|-------------------------|-------------------------|
|-8-8-8--8--8-------------|-8-8-8--8--8-------------|
|-8-8-8-12-12-8-8-8-8-8-8-|-8-8-8-12-12-8-8-8-8-8-8-|
|-8-8-8--8--8-8-8-8-8-8-8-|-8-8-8--8--8-8-8-8-8-8-8-|


  G5                      N.C.
            PM------------------------------------------|
|-----------------------|-----------------------------------||
|-----------------------|----------------------------------o||
|-----------------------|-----------------------------------||
|-5-5-5-5-5-------------|-----------------------------------||
|-5-5-5-5-5-5-5-5-5-5-5-|----------------------------------o||
|-5-5-5-5-5-5-5-5-5-5-5-|-5-5-5-5-3-3-3-3-8-8-8-8-8-8-8-8---||


   Verse
    D5
    PM----|     PM------------------|     PM--------|
||--------------------------|--------------------------|
||o-------------------------|--------------------------|
||--------------------------|--------------------------|
||----------0---------------|---------0----------------|
||o-0-0-0-0-0---0-0-0-0-0-0-|-0-0-0-0-0---0-0-0-0-0-0--|
||--0-0-0-0-0---0-0-0-0-0-0-|-0-0-0-0-0---0-0-0-0-0-0--|


  D5                        N.C.    D5      N.C.
                           3/4
  Gtr I
  PM----|     PM--------|           PM----|
|-------------------------|--------------------|
|-------------------------|--------------------|
|-------------------------|--------------------|
|---------0---------------|--------------------|
|-0-0-0-0-0---0-0-0-0-0-0-|---------0-0-0-0-5--|
|-0-0-0-0-0---0-0-0-0-0-0-|-3h5p3p0-0-0-0-0----|
|
| Gtr II
| PM----|     PM--------|           PM----|
|-------------------------|--------------------|
|-------------------------|--------------------|
|-------------------------|--------------------|
|---------0---------------|--------------------|
|-0-0-0-0-0---0-0-0-0-0-0-|---------0-0-0-0-8--|
|-0-0-0-0-0---0-0-0-0-0-0-|-3h5p3p0-0-0-0-0----|


  D5
 4/4
  Gtrs I, II
  PM----|     PM------------------|     PM--------|
|-------------------------|-------------------------|
|-------------------------|-------------------------|
|-------------------------|-------------------------|
|---------0---------------|---------0---------------|
|-0-0-0-0-0---0-0-0-0-0-0-|-0-0-0-0-0---0-0-0-0-0-0-|
|-0-0-0-0-0---0-0-0-0-0-0-|-0-0-0-0-0---0-0-0-0-0-0-|


  1.
  D5                        N.C.    D5      N.C.
                           3/4
  Gtr I
  PM----|     PM--------|           PM----|
|-------------------------|---------------------||
|-------------------------|--------------------o||
|-------------------------|---------------------||
|---------0---------------|---------------------||
|-0-0-0-0-0---0-0-0-0-0-0-|---------0-0-0-0-3--o||
|-0-0-0-0-0---0-0-0-0-0-0-|-3h5p3p0-0-0-0-0-----||
|
| Gtr II
| PM----|     PM--------|           PM----|
|-------------------------|---------------------||
|-------------------------|--------------------o||
|-------------------------|---------------------||
|---------0---------------|---------------------||
|-0-0-0-0-0---0-0-0-0-0-0-|---------0-0-0-0-7--o||
|-0-0-0-0-0---0-0-0-0-0-0-|-3h5p3p0-0-0-0-0-----||


  2.
  D5                        N.C.    D5      A5    D5
 4/4
  PM----|     PM--------|           PM----|
|-------------------------|--------------------------||
|-------------------------|--------------------------||
|-------------------------|--------------------------||
|---------0---------------|-----------------2---2h3--||
|-0-0-0-0-0---0-0-0-0-0-0-|---------0-0-0-0---0------||
|-0-0-0-0-0---0-0-0-0-0-0-|-3h5p3p0-0-0-0-0----------||
|
| PM----|     PM--------|           PM----|
|-------------------------|--------------------------||
|-------------------------|--------------------------||
|-------------------------|--------------------------||
|---------0---------------|-----------------7-7-7-0--||
|-0-0-0-0-0---0-0-0-0-0-0-|---------0-0-0-0-7-7-7-0--||
|-0-0-0-0-0---0-0-0-0-0-0-|-3h5p3p0-0-0-0-0-7-7-7-0--||


 Chorus
  D5              C5                          G5
|--------------------|--------------------------|
|--------------------|--------------------------|
|--------------------|------------------------5-|
|-(3)---3---2h3----2-|--(2)-----3-----3p=2----x-|
|-----0---0-----0----|-------0-----0--------0-3-|
|--------------------|--------------------------|
|
|--------------------|--------------------------|
|--------------------|--------------------------|
|--------------------|--------------------------|
|-(0)-0-0-0-0-0-0-10-|-(10)-10-10-10-10-10-10-5-|
|-(0)-0-0-0-0-0-0-10-|-(10)-10-10-10-10-10-10-5-|
|-(0)-0-0-0-0-0-0-10-|-(10)-10-10-10-10-10-10-5-|


                  Bb5                         D5
|--------------------|--------------------------|
|--------------------|--------------------------|
|-(5)---5---5s7------|--------------------------|
|-------x---x-----/5-|-(5)-3-(3)-/7-(7)-3-(3)-3-|
|-(3)-0-3-0-3s5-0----|--------------------------|
|--------------------|--------------------------|
|
|--------------------|--------------------------|
|--------------------|--------------------------|
|--------------------|--------------------------|
|-(5)-5-5-5-5-5-5--8-|-(8)-8--8---8--8--8--8--0-|
|-(5)-5-5-5-5-5-5--8-|-(8)-8--8---8--8--8--8--0-|
|-(5)-5-5-5-5-5-5--8-|-(8)-8--8---8--8--8--8--0-|


  D5              C5                          G/B
  Gtr I
|--------------------|---------------------------|
|--------------------|---------------------------|
|--------------------|-------------------------5-|
|-(3)---3---2h3----2-|--(2)-----3-----3p=2-----x-|
|-----0---0-----0----|-------0-----0--------0--3-|
|--------------------|---------------------------|
|
| Gtr II
|--------------------|---------------------------|
|--------------------|---------------------------|
|--------------------|---------------------------|
|-(0)-0-0-0-0-0-0-10-|-(10)-10-10-10-10-10-10--9-|
|-(0)-0-0-0-0-0-0-10-|-(10)-10-10-10-10-10-10-10-|
|-(0)-0-0-0-0-0-0-10-|-(10)-10-10-10-10-10-10--9-|
|
| Gtr III
|--------------------|---------------------------|
|--------------------|---------------------------|
|--------------------|---------------------------|
|--------------------|---------------------------|
|--------------------|---------------------------|
|--------------------|---------------------------|


                         Bb5                         D5
|---------------------------|---------------------------|
|---------------------------|---------------------------|
|--(5)-----5-----5s=7-------|------------------------10-|
|----------x-----x-------/5-|-(5)-3-(3)-/7-(7)-3-(3)--x-|
|--(3)--0--3--0--3s=5--0----|-------------------------8-|
|---------------------------|---------------------------|
|
|---------------------------|---------------------------|
|---------------------------|---------------------------|
|---------------------------|-------------------------7-|
|--(9)--9--9--9--9--9--9--8-|-(8)-8--8---8--8--8--8---x-|
|-(10)-10-10-10-10-10-10--8-|-(8)-8--8---8--8--8--8---5-|
|--(9)--9--9--9--9--9--9--8-|-(8)-8--8---8--8--8--8-----|
|
|---------------------------|---------------------------|
|---------------------------|---------------------------|
|---------------------------|---------------------------|
|---------------------------|-------------------------0-|
|---------------------------|-------------------------0-|
|---------------------------|-------------------------0-|


  D5                     C5                          G5
|---------------------------|---------------------------|
|---------------------------|---------------------------|
|-(10)-10-10-10-10-10-10--9-|--(9)--9--9--9--9--9--9-10-|
|-------x--x--x--x--x--x--x-|-------x--x--x--x--x--x--x-|
|--(8)--8--8--8--8--8--8--7-|--(7)--7--7--7--7--7--7--8-|
|---------------------------|---------------------------|
|
|---------------------------|---------------------------|
|---------------------------|---------------------------|
|--(7)--7--7--7--7--7--7--5-|--(5)--5--5--5--5--5--5--7-|
|-------x--x--x--x--x--x--x-|-------x--x--x--x--x--x--x-|
|--(5)--5--5--5--5--5--5--3-|--(3)--3--3--3--3--3--3--5-|
|---------------------------|---------------------------|
|
|---------------------------|---------------------------|
|---------------------------|---------------------------|
|---------------------------|---------------------------|
|--(0)--0--0--0--0--0--0-10-|-(10)-10-10-10-10-10-10--5-|
|--(0)--0--0--0--0--0--0-10-|-(10)-10-10-10-10-10-10--5-|
|--(0)--0--0--0--0--0--0-10-|-(10)-10-10-10-10-10-10--5-|


                         Bb5                         D5
|---------------------------|---------------------------|
|---------------------------|---------------------------|
|-(10)-10-10-10-10-10-10-10-|-(10)-10-10-10-10-10-10-10-|
|-------x--x--x--x--x--x--x-|-------x--x--x--x--x--x--x-|
|--(8)--8--8--8--8--8--8--8-|--(8)--8--8--8--8--8--8--8-|
|---------------------------|---------------------------|
|
|---------------------------|---------------------------|
|---------------------------|---------------------------|
|--(7)--7--7--7--7--7--7--7-|--(7)--7--7--7--7--7--7--7-|
|-------x--x--x--x--x--x--x-|-------x--x--x--x--x--x--x-|
|--(5)--5--5--5--5--5--5--5-|--(5)--5--5--5--5--5--5--5-|
|---------------------------|---------------------------|
|
|---------------------------|---------------------------|
|---------------------------|---------------------------|
|---------------------------|---------------------------|
|--(5)--5--5--5--5--5--5--8-|--(8)--8--8--8--8--8--8--0-|
|--(5)--5--5--5--5--5--5--8-|--(8)--8--8--8--8--8--8--0-|
|--(5)--5--5--5--5--5--5--8-|--(8)--8--8--8--8--8--8--0-|


  D5                     C5                          G/B
|---------------------------|---------------------------|
|---------------------------|---------------------------|
|-(10)-10-10-10-10-10-10--9-|--(9)--9--9--9--9--9--9-12-|
|-------x--x--x--x--x--x--x-|-------x--x--x--x--x--x--x-|
|--(8)--8--8--8--8--8--8--7-|--(7)--7--7--7--7--7--7-10-|
|---------------------------|---------------------------|
|
|---------------------------|---------------------------|
|---------------------------|---------------------------|
|--(7)--7--7--7--7--7--7--5-|--(5)--5--5--5--5--5--5--4-|
|-------x--x--x--x--x--x--x-|-------x--x--x--x--x--x--x-|
|--(5)--5--5--5--5--5--5--3-|--(3)--3--3--3--3--3--3--2-|
|---------------------------|---------------------------|
|
|---------------------------|---------------------------|
|---------------------------|---------------------------|
|---------------------------|---------------------------|
|--(0)--0--0--0--0--0--0-10-|-(10)-10-10-10-10-10-10--9-|
|--(0)--0--0--0--0--0--0-10-|-(10)-10-10-10-10-10-10-10-|
|--(0)--0--0--0--0--0--0-10-|-(10)-10-10-10-10-10-10--9-|


                         Bb5
|---------------------------|---------------------------||
|---------------------------|---------------------------||
|-(12)-12-12-12-12-12-12-10-|-(10)-10-10-10-10-10-10-10-||
|-------x--x--x--x--x--x--x-|-------x--x--x--x--x--x--x-||
|-(10)-10-10-10-10-10-10--8-|--(8)--8--8--8--8--8--8--8-||
|---------------------------|---------------------------||
|
|---------------------------|---------------------------||
|---------------------------|---------------------------||
|--(4)--4--4--4--4--4--4--7-|--(7)--7--7--7--7--7--7--7-||
|-------x--x--x--x--x--x--x-|-------x--x--x--x--x--x--x-||
|--(2)--2--2--2--2--2--2--5-|--(5)--5--5--5--5--5--5--5-||
|---------------------------|---------------------------||
|
|---------------------------|---------------------------||
|---------------------------|---------------------------||
|---------------------------|---------------------------||
|--(9)--9--9--9--9--9--9--8-|--(8)--8--8--8--8--8--8--8-||
|-(10)-10-10-10-10-10-10--8-|--(8)--8--8--8--8--8--8--8-||
|--(9)--9--9--9--9--9--9--8-|--(8)--8--8--8--8--8--8--8-||


 Pre-Verse
  D5    N.C.  D5                  N.C.  D5
  Gtr I
              PM--------|               PM--------|
|-------------------------|-------------------------|
|-------------------------|-------------------------|
|-------10-10-------------|-------10-10-------------|
|-0-0-0--x--x-------------|-0-0-0--x--x-------------|
|-0-0-0--8--8-0-0-0-0-0-0-|-0-0-0--8--8-0-0-0-0-0-0-|
|-0-0-0-------0-0-0-0-0-0-|-0-0-0-------0-0-0-0-0-0-|
|
| Gtr II
|             PM--------|               PM--------|
|-------------------------|-------------------------|
|-------------------------|-------------------------|
|-------14-14-------------|-------14-14-------------|
|-0-0-0--x--x-------------|-0-0-0--x--x-------------|
|-0-0-0-12-12-0-0-0-0-0-0-|-0-0-0-12-12-0-0-0-0-0-0-|
|-0-0-0-------0-0-0-0-0-0-|-0-0-0-------0-0-0-0-0-0-|


  D5    N.C.  D5                  N.C.  D5
              PM--------|               PM--------|
|-------------------------|-------------------------|
|-------------------------|-------------------------|
|--------9--9-------------|--------9--9-------------|
|-0-0-0--x--x-------------|-0-0-0--x--x-------------|
|-0-0-0--7--7-0-0-0-0-0-0-|-0-0-0--7--7-0-0-0-0-0-0-|
|-0-0-0-------0-0-0-0-0-0-|-0-0-0-------0-0-0-0-0-0-|
|
|             PM--------|               PM--------|
|-------------------------|-------------------------|
|-------------------------|-------------------------|
|-------13-13-------------|-------13-13-------------|
|-0-0-0--x--x-------------|-0-0-0--x--x-------------|
|-0-0-0-11-11-0-0-0-0-0-0-|-0-0-0-11-11-0-0-0-0-0-0-|
|-0-0-0-------0-0-0-0-0-0-|-0-0-0-------0-0-0-0-0-0-|


  Bb5   Bbmaj7Bb5                 Bbmaj7Bb5
  Gtrs I, II
              PM--------|               PM--------|
|-------------------------|-------------------------|
|-------------------------|-------------------------|
|-------------------------|-------------------------|
|-8-8-8--8--8-------------|-8-8-8--8--8-------------|
|-8-8-8-12-12-8-8-8-8-8-8-|-8-8-8-12-12-8-8-8-8-8-8-|
|-8-8-8--8--8-8-8-8-8-8-8-|-8-8-8--8--8-8-8-8-8-8-8-|


  G5                      N.C.
            PM------------------------------------------|
|-----------------------|----------------------------------||
|-----------------------|----------------------------------||
|-----------------------|----------------------------------||
|-5-5-5-5-5-------------|----------------------------------||
|-5-5-5-5-5-5-5-5-5-5-5-|----------------------------------||
|-5-5-5-5-5-5-5-5-5-5-5-|-5-5-5-5-3-3-3-3-8-8-8-8-8-8-8-8--||


 Verse
  D5
  PM----|     PM------------------|     PM--------|
|-------------------------|-------------------------|
|-------------------------|-------------------------|
|-------------------------|-------------------------|
|---------0---------------|---------0---------------|
|-0-0-0-0-0---0-0-0-0-0-0-|-0-0-0-0-0---0-0-0-0-0-0-|
|-0-0-0-0-0---0-0-0-0-0-0-|-0-0-0-0-0---0-0-0-0-0-0-|


  D5                        N.C.    D5      N.C.
                           3/4
  Gtr I
  PM----|     PM--------|           PM----|
|-------------------------|----------------------|
|-------------------------|----------------------|
|-------------------------|----------------------|
|---------0---------------|----------------------|
|-0-0-0-0-0---0-0-0-0-0-0-|---------0-0-0-0--5---|
|-0-0-0-0-0---0-0-0-0-0-0-|-3h5p3p0-0-0-0-0------|
|
| Gtr II
| PM----|     PM--------|           PM----|
|-------------------------|----------------------|
|-------------------------|----------------------|
|-------------------------|----------------------|
|---------0---------------|----------------------|
|-0-0-0-0-0---0-0-0-0-0-0-|---------0-0-0-0-[8]--|
|-0-0-0-0-0---0-0-0-0-0-0-|-3h5p3p0-0-0-0-0------|


  D5
 4/4
  Gtrs I, II
  PM----|     PM------------------|     PM--------|
|-------------------------|-------------------------|
|-------------------------|-------------------------|
|-------------------------|-------------------------|
|---------0---------------|---------0---------------|
|-0-0-0-0-0---0-0-0-0-0-0-|-0-0-0-0-0---0-0-0-0-0-0-|
|-0-0-0-0-0---0-0-0-0-0-0-|-0-0-0-0-0---0-0-0-0-0-0-|


  D5                        N.C.    D5      N.C.
                           3/4
  Gtr I
  PM----|     PM--------|           PM----|
|-------------------------|--------------------|
|-------------------------|--------------------|
|-------------------------|--------------------|
|---------0---------------|--------------------|
|-0-0-0-0-0---0-0-0-0-0-0-|---------0-0-0-0-3--|
|-0-0-0-0-0---0-0-0-0-0-0-|-3h5p3p0-0-0-0-0----|
|
| Gtr II
| PM----|     PM--------|           PM----|
|-------------------------|--------------------|
|-------------------------|--------------------|
|-------------------------|--------------------|
|---------0---------------|--------------------|
|-0-0-0-0-0---0-0-0-0-0-0-|---------0-0-0-0-7--|
|-0-0-0-0-0---0-0-0-0-0-0-|-3h5p3p0-0-0-0-0----|


  D5
 4/4
  Gtrs I, II
  PM----|     PM------------------|     PM--------|
|-------------------------|-------------------------|
|-------------------------|-------------------------|
|-------------------------|-------------------------|
|---------0---------------|---------0---------------|
|-0-0-0-0-0---0-0-0-0-0-0-|-0-0-0-0-0---0-0-0-0-0-0-|
|-0-0-0-0-0---0-0-0-0-0-0-|-0-0-0-0-0---0-0-0-0-0-0-|


  D5                        N.C.    D5      N.C.
  PM----|     PM--------|           PM----|
|-------------------------|---------------------|
|-------------------------|---------------------|
|-------------------------|---------------------|
|---------0---------------|---------------------|
|-0-0-0-0-0---0-0-0-0-0-0-|---------0-0-0-0-----|
|-0-0-0-0-0---0-0-0-0-0-0-|-3h5p3p0-0-0-0-0-----|


  D5
  PM----|     PM------------------|     PM--------|
|-------------------------|-------------------------|
|-------------------------|-------------------------|
|-------------------------|-------------------------|
|---------0---------------|---------0---------------|
|-0-0-0-0-0---0-0-0-0-0-0-|-0-0-0-0-0---0-0-0-0-0-0-|
|-0-0-0-0-0---0-0-0-0-0-0-|-0-0-0-0-0---0-0-0-0-0-0-|


  D5
                                        <
  PM----|     PM------------------|
|-------------------------|----------------||
|-------------------------|----------------||
|-------------------------|----------------||
|---------0---------------|-------------0--||
|-0-0-0-0-0---0-0-0-0-0-0-|-0-0-0-0-----0--||
|-0-0-0-0-0---0-0-0-0-0-0-|-0-0-0-0-----0--||


   Interlude
    Bb5                         B5C5 Db5
    Gtr I
||------------------|-------------------|
||o-----------------|-------------------|
||--7-7-7-7-7-7-7-7-|-7-7-7-7-7-9--9--9-|
||--x-x-x-x-x-x-x-x-|-x-x-x-x-x-x--x--x-|
||o-5-5-5-5-5-5-5-5-|-5-5-5-5-5-7--7--7-|
||------------------|-------------------|
|
|   Gtr II
||------------------|-------------------|
||o-----------------|-------------------|
||--7-7-7-7-7-7-7-7-|-7-7-7-7-7-9--9--9-|
||--x-x-x-x-x-x-x-x-|-x-x-x-x-x-x--x--x-|
||o-5-5-5-5-5-5-5-5-|-5-5-5-5-5-7--7--7-|
||------------------|-------------------|
|
|   Gtr III
||------------------|-------------------|
||o-----------------|-------------------|
||------------------|-------------------|
||--8-8-8-8-8-8-8-8-|-8-8-8-8-8-9-10-11-|
||o-8-8-8-8-8-8-8-8-|-8-8-8-8-8-9-10-11-|
||--8-8-8-8-8-8-8-8-|-8-8-8-8-8-9-10-11-|


  D5
|-------------------------|--------------------------|
|-------------------------|--------------------------|
|-10-10-10-10-10-10-10-14-|-14s12-12s10-10s=9--9s12--|
|--x--x--x--x--x--x--x--x-|--x-----x-----x-----x-----|
|--8--8--8--8--8--8--8-12-|-12s10-10s=8--8s=7--7s10--|
|-------------------------|--------------------------|
|
|-------------------------|--------------------------|
|-------------------------|--------------------------|
|-10-10-10-10-10-10-10-17-|-17s15-15s14-14s12-12s15--|
|--x--x--x--x--x--x--x--x-|--x-----x-----x-----x-----|
|--8--8--8--8--8--8--8-15-|-15s13-13s12-12s10-10s13--|
|-------------------------|--------------------------|
|
|-------------------------|--------------------------|
|-------------------------|--------------------------|
|-------------------------|--------------------------|
|-12-12-12-12-12-12-12-12-|-12-12-12-12-12-12-12-12--|
|-12-12-12-12-12-12-12-12-|-12-12-12-12-12-12-12-12--|
|-12-12-12-12-12-12-12-12-|-12-12-12-12-12-12-12-12--|


  Bb5                         B5C5 Db5
|-----------------|-------------------|
|-----------------|-------------------|
|-7-7-7-7-7-7-7-7-|-7-7-7-7-7-9--9--9-|
|-x-x-x-x-x-x-x-x-|-x-x-x-x-x-x--x--x-|
|-5-5-5-5-5-5-5-5-|-5-5-5-5-5-7--7--7-|
|-----------------|-------------------|
|
|-----------------|-------------------|
|-----------------|-------------------|
|-7-7-7-7-7-7-7-7-|-7-7-7-7-7-9--9--9-|
|-x-x-x-x-x-x-x-x-|-x-x-x-x-x-x--x--x-|
|-5-5-5-5-5-5-5-5-|-5-5-5-5-5-7--7--7-|
|-----------------|-------------------|
|
|-----------------|-------------------|
|-----------------|-------------------|
|-----------------|-------------------|
|-8-8-8-8-8-8-8-8-|-8-8-8-8-8-9-10-11-|
|-8-8-8-8-8-8-8-8-|-8-8-8-8-8-9-10-11-|
|-8-8-8-8-8-8-8-8-|-8-8-8-8-8-9-10-11-|


  D5
|-------------------------|--------------------------||
|-------------------------|-------------------------o||
|--7--7--7--7--7--7--7-14-|-14s12-12s10-10s=9--9s12--||
|--x--x--x--x--x--x--x--x-|--x-----x-----x-----x-----||
|--5--5--5--5--5--5--5-12-|-12s10-10s=8--8s=7--7s10-o||
|-------------------------|--------------------------||
|
|-------------------------|--------------------------||
|-------------------------|-------------------------o||
|-10-10-10-10-10-10-10-10-|-10s=9--9s=7--7s=5--5s=7--||
|--x--x--x--x--x--x--x--x-|--x-----x-----x-----x-----||
|--8--8--8--8--8--8--8--8-|--8s=7--7s=5--5s=3--3s=5-o||
|-------------------------|--------------------------||
|
|-------------------------|--------------------------||
|-------------------------|-------------------------o||
|-------------------------|--------------------------||
|-12-12-12-12-12-12-12-12-|-12-12-12-12-12-12-12-12--||
|-12-12-12-12-12-12-12-12-|-12-12-12-12-12-12-12-12-o||
|-12-12-12-12-12-12-12-12-|-12-12-12-12-12-12-12-12--||


 Guitar Break
  Slower Q=148
  D5
  PM---------------------------------------------------
|-------------------------|---------------------------|
|-------------------------|---------------------------|
|-------------------------|---------------------------|
|-------------------------|---------------------------|
|-0-0-0-0-0---0-0-0-0-0-0-|--0--0-0-0-0---0-0-0-0-0-0-|
|-0-0-0-0-0---0-0-0-0-0-0-|--0--0-0-0-0---0-0-0-0-0-0-|
|
|-------------------------|---------------------------|
|-------------------------|---------------------------|
|-------------------------|---------------------------|
|-0-----------------------|-(0)-----------------------|
|-0-----------------------|-(0)-----------------------|
|-0-----------------------|-(0)-----------------------|


                              N.C.      D5      N.C.
 -------------------------|             PM----|
|---------------------------|-------------------------------|
|---------------------------|-------------------------------|
|---------------------------|-------------------------------|
|---------------------------|-------------------3b4.5---(3)-|
|--0--0-0-0-0---0-0-0-0-0-0-|-----------0-0-0-0-------------|
|--0--0-0-0-0---0-0-0-0-0-0-|--3h=5p3p0-0-0-0-0-------------|
|
|---------------------------|-------------------------------|
|---------------------------|-------------------------------|
|---------------------------|-------------------------------|
|-(0)-----------------------|-(0)---------------------------|
|-(0)-----------------------|-(0)---------------------------|
|-(0)-----------------------|-(0)---------------------------|


  D5
  PM----|     PM------------------|     PM-----------
|-------------------------|-------------------------|
|-------------------------|-------------------------|
|-------------------------|-------------------------|
|---------0---------------|---------0---------------|
|-0-0-0-0-0---0-0-0-0-0-0-|-0-0-0-0-0---0-0-0-0-0-0-|
|-0-0-0-0-0---0-0-0-0-0-0-|-0-0-0-0-0---0-0-0-0-0-0-|
|
|-------------------------|-------------------------|
|-------------------------|-------------------------|
|-------------------------|-------------------------|
|-0-----------------------|-------------------------|
|-0-----------------------|-------------------------|
|-0-----------------------|-------------------------|


                                       \7___|
 -------|     PM------------------|
|-------------------------|-----------------------||
|-------------------------|-----------------------||
|-------------------------|-----------------------||
|---------0---------------|---------0--0---(0)----||
|-0-0-0-0-0---0-0-0-0-0-0-|-0-0-0-0-0--0---(0)----||
|-0-0-0-0-0---0-0-0-0-0-0-|-0-0-0-0-0--0---(0)----||
|
|                                      \7___|
|-------------------------|-----------------------||
|-------------------------|-----------------------||
|-------------------------|-----------------------||
|-------------------------|------------0---(0)----||
|-------------------------|------------0---(0)----||
|-------------------------|------------0---(0)----||


 Breakdown
  a Tempo Q=155
  D5
  Gtr I
  PM------|   PM--------------------|   PM-----------
|-------------------------|-------------------------|
|-------------------------|-------------------------|
|-------------------------|-------------------------|
|-------------------------|-------------------------|
|-0-0-0-0-0---0-0-0-0-0-0-|-0-0-0-0-0---0-0-0-0-0-0-|
|-0-0-0-0-0---0-0-0-0-0-0-|-0-0-0-0-0---0-0-0-0-0-0-|
|
| Gtr II
| PM------|   PM--------------------|   PM-----------
|-------------------------|-------------------------|
|-------------------------|-------------------------|
|-------------------------|-------------------------|
|-------------------------|-------------------------|
|-0-0-0-0-0---0-0-0-0-0-0-|-0-0-0-0-0---0-0-0-0-0-0-|
|-0-0-0-0-0---0-0-0-0-0-0-|-0-0-0-0-0---0-0-0-0-0-0-|


                            N.C.D5  N.C.
 ---------|   PM--------|       PM|
|-------------------------|-------------------|
|-------------------------|-------------------|
|-------------------------|-------------------|
|-------------------------|---------3b4---(3)-|
|-0-0-0-0-0---0-0-0-0-0-0-|-----0-0-----------|
|-0-0-0-0-0---0-0-0-0-0-0-|-3p0-0-0-----------|
|
|---------|   PM--------|       PM|
|-------------------------|-------------------|
|-------------------------|-------------------|
|-------------------------|-------------------|
|-------------------------|-------------------|
|-0-0-0-0-0---0-0-0-0-0-0-|-----0-0-5b6---(5)-|
|-0-0-0-0-0---0-0-0-0-0-0-|-3p0-0-0-----------|


  D5
  PM------------------------------------------------------------------------|
|-------------------------|-------------------------|-------------------------|
|-------------------------|-------------------------|-------------------------|
|-------------------------|-------------------------|-------------------------|
|-------------------------|-------------------------|-------------------------|
|-0-0-0-0-0---0-0-0-0-0-0-|-0-0-0-0-0---0-0-0-0-0-0-|-0-0-0-0-0---0-0-0-0-0-0-|
|-0-0-0-0-0---0-0-0-0-0-0-|-0-0-0-0-0---0-0-0-0-0-0-|-0-0-0-0-0---0-0-0-0-0-0-|
|
| PM------------------------------------------------------------------------|
|-------------------------|-------------------------|-------------------------|
|-------------------------|-------------------------|-------------------------|
|-------------------------|-------------------------|-------------------------|
|-------------------------|-------------------------|-------------------------|
|-0-0-0-0-0---0-0-0-0-0-0-|-0-0-0-0-0---0-0-0-0-0-0-|-0-0-0-0-0---0-0-0-0-0-0-|
|-0-0-0-0-0---0-0-0-0-0-0-|-0-0-0-0-0---0-0-0-0-0-0-|-0-0-0-0-0---0-0-0-0-0-0-|


  N.C.    D5        N.C.
 2/4               4/4
          PM----|
|-----------------|---------------||
|-----------------|---------------||
|-----------------|---------------||
|-----------------|-2b3------(2)--||
|---------0-0-0-0-|---------------||
|-3h5p3p0-0-0-0-0-|---------------||
|
|         PM----|
|-----------------|---------------||
|-----------------|---------------||
|-----------------|---------------||
|-----------------|---------------||
|---------0-0-0-0-|-3b4------(3)--||
|-3h5p3p0-0-0-0-0-|---------------||


  D5
  PM-------------------------------------------------
|-------------------------|-------------------------|
|-------------------------|-------------------------|
|-------------------------|-------------------------|
|-------------------------|-------------------------|
|-0-0-0-0-0---0-0-0-0-0-0-|-0-0-0-0-0---0-0-0-0-0-0-|
|-0-0-0-0-0---0-0-0-0-0-0-|-0-0-0-0-0---0-0-0-0-0-0-|
|
| PM-------------------------------------------------
|-------------------------|-------------------------|
|-------------------------|-------------------------|
|-------------------------|-------------------------|
|-------------------------|-------------------------|
|-0-0-0-0-0---0-0-0-0-0-0-|-0-0-0-0-0---0-0-0-0-0-0-|
|-0-0-0-0-0---0-0-0-0-0-0-|-0-0-0-0-0---0-0-0-0-0-0-|


                            N.C.    D5      N.C.
 -----------------------|           PM----|
|-------------------------|---------------------------|
|-------------------------|---------------------------|
|-------------------------|---------------------------|
|-------------------------|-----------------3b4---(3)-|
|-0-0-0-0-0---0-0-0-0-0-0-|---------0-0-0-0-----------|
|-0-0-0-0-0---0-0-0-0-0-0-|-3h5p3p0-0-0-0-0-----------|
|
|-----------------------|           PM----|
|-------------------------|---------------------------|
|-------------------------|---------------------------|
|-------------------------|---------------------------|
|-------------------------|---------------------------|
|-0-0-0-0-0---0-0-0-0-0-0-|---------0-0-0-0-5b6---(5)-|
|-0-0-0-0-0---0-0-0-0-0-0-|-3h5p3p0-0-0-0-0-----------|


  D5
  Gtrs I, II
  PM------|   PM--------------------|   PM--------------------|   PM--------|
|-------------------------|-------------------------|-------------------------|
|-------------------------|-------------------------|-------------------------|
|-------------------------|-------------------------|-------------------------|
|-------------------------|-------------------------|-------------------------|
|-0-0-0-0-0---0-0-0-0-0-0-|-0-0-0-0-0---0-0-0-0-0-0-|-0-0-0-0-0---0-0-0-0-0-0-|
|-0-0-0-0-0---0-0-0-0-0-0-|-0-0-0-0-0---0-0-0-0-0-0-|-0-0-0-0-0---0-0-0-0-0-0-|


  D5N.C.            D5
  Gtr I
|----------|----------||
|----------|----------||
|----------|----------||
|-0--------|----------||
|-0--------|----------||
|-0--------|--------0-||
|
| Gtr II
|----------|----------||
|----------|----------||
|----------|----------||
|-0--------|--------0-||
|-0--------|--------0-||
|-0--------|--------0-||


 Chorus
  D5              C5                          G5
|--------------------|--------------------------|
|--------------------|--------------------------|
|--------------------|------------------------5-|
|-------3---2h3----2-|--(2)-----3-----3p=2----x-|
|---------0-----0----|-------0-----0--------0-3-|
|-(0)-0--------------|--------------------------|
|
|--------------------|--------------------------|
|--------------------|--------------------------|
|--------------------|--------------------------|
|-(0)-0-0-0-0-0-0-10-|-(10)-10-10-10-10-10-10-5-|
|-(0)-0-0-0-0-0-0-10-|-(10)-10-10-10-10-10-10-5-|
|-(0)-0-0-0-0-0-0-10-|-(10)-10-10-10-10-10-10-5-|


                  Bb5                         D5
|--------------------|--------------------------|
|--------------------|--------------------------|
|-(5)---5---5s7------|--------------------------|
|-------x---x-----/5-|-(5)-3-(3)-/7-(7)-3-(3)-3-|
|-(3)-0-3-0-3s5-0----|--------------------------|
|--------------------|--------------------------|
|
|--------------------|--------------------------|
|--------------------|--------------------------|
|--------------------|--------------------------|
|-(5)-5-5-5-5-5-5--8-|-(8)-8--8---8--8--8--8--0-|
|-(5)-5-5-5-5-5-5--8-|-(8)-8--8---8--8--8--8--0-|
|-(5)-5-5-5-5-5-5--8-|-(8)-8--8---8--8--8--8--0-|


  D5              C5                          G/B
  Gtr I
|--------------------|---------------------------|
|--------------------|---------------------------|
|--------------------|-------------------------5-|
|--3----3---2h3----2-|--(2)-----3-----3p=2-----x-|
|-----0---0-----0----|-------0-----0--------0--3-|
|--------------------|---------------------------|
|
| Gtr II
|--------------------|---------------------------|
|--------------------|---------------------------|
|--------------------|---------------------------|
|-(0)-0-0-0-0-0-0-10-|-(10)-10-10-10-10-10-10--9-|
|-(0)-0-0-0-0-0-0-10-|-(10)-10-10-10-10-10-10-10-|
|-(0)-0-0-0-0-0-0-10-|-(10)-10-10-10-10-10-10--9-|
|
| Gtr III
|--------------------|---------------------------|
|--------------------|---------------------------|
|--------------------|---------------------------|
|--------------------|---------------------------|
|--------------------|---------------------------|
|--------------------|---------------------------|


                         Bb5                         D5
|---------------------------|---------------------------|
|---------------------------|---------------------------|
|--(5)-----5-----5s=7-------|------------------------10-|
|----------x-----x-------/5-|-(5)-3-(3)-/7-(7)-3-(3)--x-|
|--(3)--0--3--0--3s=5--0----|-------------------------8-|
|---------------------------|---------------------------|
|
|---------------------------|---------------------------|
|---------------------------|---------------------------|
|---------------------------|-------------------------7-|
|--(9)--9--9--9--9--9--9--8-|-(8)-8--8---8--8--8--8---x-|
|-(10)-10-10-10-10-10-10--8-|-(8)-8--8---8--8--8--8---5-|
|--(9)--9--9--9--9--9--9--8-|-(8)-8--8---8--8--8--8-----|
|
|---------------------------|---------------------------|
|---------------------------|---------------------------|
|---------------------------|---------------------------|
|---------------------------|-------------------------0-|
|---------------------------|-------------------------0-|
|---------------------------|-------------------------0-|


  D5                     C5                          G5
|---------------------------|---------------------------|
|---------------------------|---------------------------|
|-(10)-10-10-10-10-10-10--9-|--(9)--9--9--9--9--9--9-10-|
|-------x--x--x--x--x--x--x-|-------x--x--x--x--x--x--x-|
|--(8)--8--8--8--8--8--8--7-|--(7)--7--7--7--7--7--7--8-|
|---------------------------|---------------------------|
|
|---------------------------|---------------------------|
|---------------------------|---------------------------|
|--(7)--7--7--7--7--7--7--5-|--(5)--5--5--5--5--5--5--7-|
|-------x--x--x--x--x--x--x-|-------x--x--x--x--x--x--x-|
|--(5)--5--5--5--5--5--5--3-|--(3)--3--3--3--3--3--3--5-|
|---------------------------|---------------------------|
|
|---------------------------|---------------------------|
|---------------------------|---------------------------|
|---------------------------|---------------------------|
|--(0)--0--0--0--0--0--0-10-|-(10)-10-10-10-10-10-10--5-|
|--(0)--0--0--0--0--0--0-10-|-(10)-10-10-10-10-10-10--5-|
|--(0)--0--0--0--0--0--0-10-|-(10)-10-10-10-10-10-10--5-|


                         Bb5                         D5
|---------------------------|---------------------------|
|---------------------------|---------------------------|
|-(10)-10-10-10-10-10-10-10-|-(10)-10-10-10-10-10-10-10-|
|-------x--x--x--x--x--x--x-|-------x--x--x--x--x--x--x-|
|--(8)--8--8--8--8--8--8--8-|--(8)--8--8--8--8--8--8--8-|
|---------------------------|---------------------------|
|
|---------------------------|---------------------------|
|---------------------------|---------------------------|
|--(7)--7--7--7--7--7--7--7-|--(7)--7--7--7--7--7--7--7-|
|-------x--x--x--x--x--x--x-|-------x--x--x--x--x--x--x-|
|--(5)--5--5--5--5--5--5--5-|--(5)--5--5--5--5--5--5--5-|
|---------------------------|---------------------------|
|
|---------------------------|---------------------------|
|---------------------------|---------------------------|
|---------------------------|---------------------------|
|--(5)--5--5--5--5--5--5--8-|--(8)--8--8--8--8--8--8--0-|
|--(5)--5--5--5--5--5--5--8-|--(8)--8--8--8--8--8--8--0-|
|--(5)--5--5--5--5--5--5--8-|--(8)--8--8--8--8--8--8--0-|


  D5                     C5                          G/B
|---------------------------|---------------------------|
|---------------------------|---------------------------|
|-(10)-10-10-10-10-10-10--9-|--(9)--9--9--9--9--9--9-12-|
|-------x--x--x--x--x--x--x-|-------x--x--x--x--x--x--x-|
|--(8)--8--8--8--8--8--8--7-|--(7)--7--7--7--7--7--7-10-|
|---------------------------|---------------------------|
|
|---------------------------|---------------------------|
|---------------------------|---------------------------|
|--(7)--7--7--7--7--7--7--5-|--(5)--5--5--5--5--5--5--4-|
|-------x--x--x--x--x--x--x-|-------x--x--x--x--x--x--x-|
|--(5)--5--5--5--5--5--5--3-|--(3)--3--3--3--3--3--3--2-|
|---------------------------|---------------------------|
|
|---------------------------|---------------------------|
|---------------------------|---------------------------|
|---------------------------|---------------------------|
|--(0)--0--0--0--0--0--0-10-|-(10)-10-10-10-10-10-10--9-|
|--(0)--0--0--0--0--0--0-10-|-(10)-10-10-10-10-10-10-10-|
|--(0)--0--0--0--0--0--0-10-|-(10)-10-10-10-10-10-10--9-|


                         Bb5                         D5
|---------------------------|---------------------------|
|---------------------------|---------------------------|
|-(12)-12-12-12-12-12-12-10-|-(10)-10-10-10-10-10-10-10-|
|-------x--x--x--x--x--x--x-|-------x--x--x--x--x--x--x-|
|-(10)-10-10-10-10-10-10--8-|--(8)--8--8--8--8--8--8--8-|
|---------------------------|---------------------------|
|
|---------------------------|---------------------------|
|---------------------------|---------------------------|
|--(4)--4--4--4--4--4--4--7-|--(7)--7--7--7--7--7--7--7-|
|-------x--x--x--x--x--x--x-|-------x--x--x--x--x--x--x-|
|--(2)--2--2--2--2--2--2--5-|--(5)--5--5--5--5--5--5--5-|
|---------------------------|---------------------------|
|
|---------------------------|---------------------------|
|---------------------------|---------------------------|
|---------------------------|---------------------------|
|--(9)--9--9--9--9--9--9--8-|--(8)--8--8--8--8--8--8--0-|
|-(10)-10-10-10-10-10-10--8-|--(8)--8--8--8--8--8--8--0-|
|--(9)--9--9--9--9--9--9--8-|--(8)--8--8--8--8--8--8--0-|


  D5                     C5                          G/B
|---------------------------|---------------------------|
|---------------------------|---------------------------|
|-(10)-10-10-10-10-10-10--9-|--(9)--9--9--9--9--9--9-10-|
|-------x--x--x--x--x--x--x-|-------x--x--x--x--x--x--x-|
|--(8)--8--8--8--8--8--8--7-|--(7)--7--7--7--7--7--7--8-|
|---------------------------|---------------------------|
|
|---------------------------|---------------------------|
|---------------------------|---------------------------|
|--(7)--7--7--7--7--7--7--5-|--(5)--5--5--5--5--5--5--7-|
|-------x--x--x--x--x--x--x-|-------x--x--x--x--x--x--x-|
|--(5)--5--5--5--5--5--5--3-|--(3)--3--3--3--3--3--3--5-|
|---------------------------|---------------------------|
|
|---------------------------|---------------------------|
|---------------------------|---------------------------|
|---------------------------|---------------------------|
|--(0)--0--0--0--0--0--0-10-|-(10)-10-10-10-10-10-10--9-|
|--(0)--0--0--0--0--0--0-10-|-(10)-10-10-10-10-10-10-10-|
|--(0)--0--0--0--0--0--0-10-|-(10)-10-10-10-10-10-10--9-|


                         Bb5                         D5
|---------------------------|---------------------------|
|---------------------------|---------------------------|
|-(10)-10-10-10-10-10-10-10-|-(10)-10-10-10-10-10-10-10-|
|-------x--x--x--x--x--x--x-|-------x--x--x--x--x--x--x-|
|--(8)--8--8--8--8--8--8--8-|--(8)--8--8--8--8--8--8--8-|
|---------------------------|---------------------------|
|
|---------------------------|---------------------------|
|---------------------------|---------------------------|
|--(7)--7--7--7--7--7--7--7-|--(7)--7--7--7--7--7--7--7-|
|-------x--x--x--x--x--x--x-|-------x--x--x--x--x--x--x-|
|--(5)--5--5--5--5--5--5--5-|--(5)--5--5--5--5--5--5--5-|
|---------------------------|---------------------------|
|
|---------------------------|---------------------------|
|---------------------------|---------------------------|
|---------------------------|---------------------------|
|--(9)--9--9--9--9--9--9--8-|--(8)--8--8--8--8--8--8--0-|
|-(10)-10-10-10-10-10-10--8-|--(8)--8--8--8--8--8--8--0-|
|--(9)--9--9--9--9--9--9--8-|--(8)--8--8--8--8--8--8--0-|


  D5                     C5                          G/B
|---------------------------|---------------------------|
|---------------------------|---------------------------|
|-(10)-10-10-10-10-10-10--9-|--(9)--9--9--9--9--9--9-12-|
|-------x--x--x--x--x--x--x-|-------x--x--x--x--x--x--x-|
|--(8)--8--8--8--8--8--8--7-|--(7)--7--7--7--7--7--7-10-|
|---------------------------|---------------------------|
|
|---------------------------|---------------------------|
|---------------------------|---------------------------|
|--(7)--7--7--7--7--7--7--5-|--(5)--5--5--5--5--5--5--4-|
|-------x--x--x--x--x--x--x-|-------x--x--x--x--x--x--x-|
|--(5)--5--5--5--5--5--5--3-|--(3)--3--3--3--3--3--3--2-|
|---------------------------|---------------------------|
|
|---------------------------|---------------------------|
|---------------------------|---------------------------|
|---------------------------|---------------------------|
|--(0)--0--0--0--0--0--0-10-|-(10)-10-10-10-10-10-10--9-|
|--(0)--0--0--0--0--0--0-10-|-(10)-10-10-10-10-10-10-10-|
|--(0)--0--0--0--0--0--0-10-|-(10)-10-10-10-10-10-10--9-|


                         Bb5
|---------------------------|---------------------------||
|---------------------------|---------------------------||
|-(12)-12-12-12-12-12-12-10-|-(10)-10-10-10-10-10-10-10-||
|-------x--x--x--x--x--x--x-|-------x--x--x--x--x--x--x-||
|-(10)-10-10-10-10-10-10--8-|--(8)--8--8--8--8--8--8--8-||
|---------------------------|---------------------------||
|
|---------------------------|---------------------------||
|---------------------------|---------------------------||
|--(4)--4--4--4--4--4--4--7-|--(7)--7--7--7--7--7--7--7-||
|-------x--x--x--x--x--x--x-|-------x--x--x--x--x--x--x-||
|--(2)--2--2--2--2--2--2--5-|--(5)--5--5--5--5--5--5--5-||
|---------------------------|---------------------------||
|
|---------------------------|---------------------------||
|---------------------------|---------------------------||
|---------------------------|---------------------------||
|--(9)--9--9--9--9--9--9--8-|--(8)--8--8--8--8--8--8--8-||
|-(10)-10-10-10-10-10-10--8-|--(8)--8--8--8--8--8--8--8-||
|--(9)--9--9--9--9--9--9--8-|--(8)--8--8--8--8--8--8--8-||


 Outro
  D5                            N.C.
  Gtr I
                                             >
  PM------|   PM--------------|
|-------------------------|--------------|----------*|
|-------------------------|--------------|----------*|
|-------------------------|--------------|----------*|
|-------------------------|-----<5>------|-(<5>)----*|
|-0-0-0-0-0---0-0-0-0-0-0-|-0-0----------|----------*|
|-0-0-0-0-0---0-0-0-0-0-0-|-0-0----------|----------*|
|
| Gtr II
|                                            >
| PM------|   PM--------------|
|-------------------------|--------------|----------*|
|-------------------------|--------------|----------*|
|-------------------------|-----<5>------|-(<5>)----*|
|-------------------------|--------------|----------*|
|-0-0-0-0-0---0-0-0-0-0-0-|-0-0----------|----------*|
|-0-0-0-0-0---0-0-0-0-0-0-|-0-0----------|----------*|


6. THE CRIMSON

Gtr I (C G C F A D) 
Gtr II (C G C F A D)
Gtr III (C G C F A D) 
Gtr IV (C G C F A D) 
Gtr V (C G C F A D) 
Gtr VI (C G C F A D)

 Intro
  Gtr I
|-------------------|-----------------|---------0-----1-|-----3---1h3p1------|
|---------0h1p0-----|-3-----1-----0h1-|-----1-----1-----|-1-----1-------1----|
|-----2---------2---|---2-----2-------|---2---2-----2---|---2-------------2--|
|---2---2---------2-|-----2-----2-----|-3---------------|--------------------|
|-0-----------------|-----------------|-----------------|--------------------|
|-------------------|-----------------|-----------------|--------------------|


  N.C.
  Gtr I
|-------------------|-----------------|---------0-----1-|-----3---1h=3p1-----||
|---------0h1p0-----|-3-----1-----0h1-|-----1-----1-----|-1-----1--------1---||
|-----2---------2---|---2-----2-------|---2---2-----2---|---2--------------2-||
|---2---2---------2-|-----2-----2-----|-3---------------|--------------------||
|-0-----------------|-----------------|-----------------|--------------------||
|-------------------|-----------------|-----------------|--------------------||
|
| Gtr VI
|                                                         TP      TP
|-------------------|-----------------|-----------------|--------------------||
|-------------------|-----------------|-----------------|--------------------||
|-------------------|-----------------|-----------------|--------------------||
|-------------------|-----------------|-----------------|-xS======x\---------||
|-------------------|-----------------|-----------------|-xS======x\---------||
|-------------------|-----------------|-----------------|-xS======x\---------||


   Pre-Verse
    Faster Q=164
    A5
    Gtr I
||--------------------|-----------------|
||o---------0h1p0-----|-3-----1-----0h1-|
||------2---------2---|---2-----2-------|
||----2---2---------2-|-----2-----2-----|
||o-0-----------------|-----------------|
||--------------------|-----------------|
|
|   Gtr III
||--------------------|-----------------|
||o-------------------|-----------------|
||--------------------|-----------------|
||--7-7-7-7-7---7-7-7-|-7-7-7-7-7-7-7-7-|
||o-7-7-7-7-7---7-7-7-|-7-7-7-7-7-7-7-7-|
||--7-7-7-7-7---7-7-7-|-7-7-7-7-7-7-7-7-|


  F5                G5
                                        3x
|---------0-----1-|-----3---1h3p1-------||
|-----1-----1-----|-1-----1-------1----o||
|---2---2-----2---|---2-------------2---||
|-3---------------|---------------------||
|-----------------|--------------------o||
|-----------------|---------------------||
|
|                                       3x
|-----------------|---------------------||
|-----------------|--------------------o||
|-----------------|---------------------||
|-3-3-3-3-3-3-3-3-|-5-5-5-5-5---5-5-5---||
|-3-3-3-3-3-3-3-3-|-5-5-5-5-5---5-5-5--o||
|-3-3-3-3-3-3-3-3-|-5-5-5-5-5---5-5-5---||


  A5                                    F5                G5
|-------------------|-----------------|---------0-----1-|-----3---1h3p1-----||
|---------0h1p0-----|-3-----1-----0h1-|-----1-----1-----|-1-----1-------1---||
|-----2---------2---|---2-----2-------|---2---2-----2---|---2-------------2-||
|---2---2---------2-|-----2-----2-----|-3---------------|-------------------||
|-0-----------------|-----------------|-----------------|-------------------||
|-------------------|-----------------|-----------------|-------------------||
|
|-------------------|-----------------|-----------------|-------------------||
|-------------------|-----------------|-----------------|-------------------||
|-------------------|-----------------|-----------------|-------------------||
|-7-7-7-7-7---7-7-7-|-7-7-7-7-7-7-7-7-|-3-3-3-3-3-3-3-3-|-5-5-5-5-----5-5-5-||
|-7-7-7-7-7---7-7-7-|-7-7-7-7-7-7-7-7-|-3-3-3-3-3-3-3-3-|-5-5-5-5-----5-5-5-||
|-7-7-7-7-7---7-7-7-|-7-7-7-7-7-7-7-7-|-3-3-3-3-3-3-3-3-|-5-5-5-5-----5-5-5-||


 Verse
  Asus2                        Am
  Gtrs III, IV
|---------------|------------|---------------------|---------------|
|---------------|------------|---------------------|---------------|
|---------------|------------|---------------------|---------------|
|-9-9-9---9-9-9-|-----9-9-9--|-10-10-10---10-10-10-|-----10-10-10--|
|-7-7-7---7-7-7-|-----7-7-7--|--7--7--7----7--7--7-|------7--7--7--|
|-7-7-7---7-7-7-|-----7-7-7--|--7--7--7----7--7--7-|------7--7--7--|


  F5                           G               N.C.
|---------------|------------|---------------|---------------||
|---------------|------------|---------------|---------------||
|---------------|-----5-5-5--|---------------|--------<5>----||
|-3-3-3---3-3-3-|-----3-3-3--|-9-9-9---9-9-9-|--x-x-x--------||
|-3-3-3---3-3-3-|-----3-3-3--|-5-5-5---5-5-5-|--x-x-x--------||
|-3-3-3---3-3-3-|-----3-3-3--|-5-5-5---5-5-5-|--x-x-x--------||


 Pre-Chorus
  Asus2
        PM|         PM----|
|-----------------|-----------------|
|-----------------|-----------------|
|-----------------|-----------------|
|-9-9-9-----9-9-9-|---------9-9-9-9-|
|-7-7-7-7-7-7-7-7-|-7-7-7-7-7-7-7-7-|
|-7-7-7-7-7-7-7-7-|-7-7-7-7-7-7-7-7-|


  Am
           PM|            PM----|
|-----------------------|---------------------|
|-----------------------|---------------------|
|-----------------------|---------------------|
|-10-10-10-----10-10-10-|---------10-10-10-10-|
|--7--7--7-7-7--7--7--7-|-7-7-7-7--7--7--7--7-|
|--7--7--7-7-7--7--7--7-|-7-7-7-7--7--7--7--7-|


  F5                                  G
  Gtrs III, IV
        PM|         PM----|                 PM|
|-----------------|-----------------|-----------------|-------------------||
|-----------------|-----------------|-----------------|-------------------||
|-5-5-5-----5-5-5-|---------5-5-5-5-|-----------------|-------------------||
|-3-3-3-----3-3-3-|---------3-3-3-3-|-9-9-9-----9-9-9-|-9-9-9-9--9--9-9-9-||
|-3-3-3-3-3-3-3-3-|-3-3-3-3-3-3-3-3-|-5-5-5-5-5-5-5-5-|-5-5-5-5--5--5-5-5-||
|-3-3-3-3-3-3-3-3-|-3-3-3-3-3-3-3-3-|-5-5-5-5-5-5-5-5-|-5-5-5-5--5--5-5-5-||
|
| Gtr V
|-----------------|-----------------|-----------------|-------------------||
|-----------------|-----------------|-----------------|-------------------||
|-----------------|-----------------|-----------4-4-4-|-5-5-5-4-(4)-------||
|-----------------|-----------------|-----------------|-------------------||
|-----------------|-----------------|-----------------|-------------------||
|-----------------|-----------------|-----------------|-------------------||


 Chorus
  $
  F5          G5                 A5
  Gtr III
|---------------|------------------|-------------------|-------------------|
|---------------|------------------|-------------------|-------------------|
|---------------|------------------|-------------------|-------------------|
|-3--3--3-3-3-5-|-(5)-5-5--5-5-5-7-|-(7)-7-7-7-7-7-7-7-|-(7)-7-7-7-7-7-7-7-|
|-3--3--3-3-3-5-|-(5)-5-5--5-5-5-7-|-(7)-7-7-7-7-7-7-7-|-(7)-7-7-7-7-7-7-7-|
|-3--3--3-3-3-5-|-(5)-5-5--5-5-5-7-|-(7)-7-7-7-7-7-7-7-|-(7)-7-7-7-7-7-7-7-|
|
| Gtr IV
|---------------|------------------|-------------------|-------------------|
|---------------|------------------|-------------------|-------------------|
|-5--5--5-5-5-7-|-(7)-7-7--7-7-7-5-|-(5)-5-5-5-5-5-5-5-|-(5)-5-5-4-4-4-4-4-|
|-x--x--x-x-x-x-|-----x-x--x-x-x-x-|-----x-x-x-x-x-x-x-|-----x-x-x-x-x-x-x-|
|-3--3--3-3-3-5-|-(5)-5-5--5-5-5-3-|-(3)-3-3-3-3-3-3-3-|-(3)-3-3-2-2-2-2-2-|
|---------------|------------------|-------------------|-------------------|


  F5          G5                 A5
|---------------|------------------|
|---------------|------------------|
|---------------|------------------|
|-3--3--3-3-3-5-|-(5)-5-5--5-5-5-7-|
|-3--3--3-3-3-5-|-(5)-5-5--5-5-5-7-|
|-3--3--3-3-3-5-|-(5)-5-5--5-5-5-7-|
|
|---------------|------------------|
|---------------|------------------|
|-5--5--5-5-5-7-|-(7)-7-7--7-7-7-5-|
|-x--x--x-x-x-x-|-----x-x--x-x-x-x-|
|-3--3--3-3-3-5-|-(5)-5-5--5-5-5-3-|
|---------------|------------------|


                                            F5
|---------------------|-----------------------|
|---------------------|-----------------------|
|---------------------|-----------------------|
|-(7)-7-7-7-7-7--7--7-|-(7)-7--7--7--7--7-7-3-|
|-(7)-7-7-7-7-7--7--7-|-(7)-7--7--7--7--7-7-3-|
|-(7)-7-7-7-7-7--7--7-|-(7)-7--7--7--7--7-7-3-|
|
|---------------------|-----------------------|
|---------------------|-----------------------|
|-(5)-5-5---5-4-(4)-7-|-(7)-5-(5)-4-(4)-5-5-5-|
|-----x-x---x-x-----x-|-----x-----x-----x-x-x-|
|-(3)-3-3---3-2-(2)-5-|-(5)-3-(3)-2-(2)-3-3-3-|
|---------------------|-----------------------|


  F5              G5                  E5
|-------------------|-------------------|
|-------------------|-------------------|
|-------------------|-------------------|
|-(3)-3-3-3-3-3-3-5-|-(5)-5-5-5-5-5-5-2-|
|-(3)-3-3-3-3-3-3-5-|-(5)-5-5-5-5-5-5-2-|
|-(3)-3-3-3-3-3-3-5-|-(5)-5-5-5-5-5-5-2-|
|
|-------------------|-------------------|
|-------------------|-------------------|
|-(5)-5-5-5-5-5-5-7-|-(7)-7-7-7-7-7-7-9-|
|-----x-x-x-x-x-x-x-|-----x-x-x-x-x-x-x-|
|-(3)-3-3-3-3-3-3-5-|-(5)-5-5-5-5-5-5-7-|
|-------------------|-------------------|


                      F5
|-----------------------|-------------------|
|-----------------------|-------------------|
|-----------------------|-------------------|
|-(2)-2-2--2--2--2--2-3-|-(3)-3-3-3-3-3-3-3-|
|-(2)-2-2--2--2--2--2-3-|-(3)-3-3-3-3-3-3-3-|
|-(2)-2-2--2--2--2--2-3-|-(3)-3-3-3-3-3-3-3-|
|
|-----------------------|-------------------|
|-----------------------|-------------------|
|-(9)-9-9-16-16-16-16-5-|-(5)-5-5-5-5-5-5-5-|
|-----x-x--x--x--x--x-x-|-----x-x-x-x-x-x-x-|
|-(7)-7-7-14-14-14-14-3-|-(3)-3-3-3-3-3-3-3-|
|-----------------------|-------------------|


                                                To Coda
  F5              G5
|-------------------|-------------------|------------|--------||
|-------------------|-------------------|------------|--------||
|-------------------|-------------------|------------|--------||
|-(3)-3-3-3-3-3-3-5-|-(5)-5-5-5-5-5-5-5-|-(5)--------|-(5)----||
|-(3)-3-3-3-3-3-3-5-|-(5)-5-5-5-5-5-5-5-|-(5)--------|-(5)----||
|-(3)-3-3-3-3-3-3-5-|-(5)-5-5-5-5-5-5-5-|-(5)--------|-(5)----||
|
|-------------------|-------------------|------------|--------||
|-------------------|-------------------|------------|--------||
|-(5)-5-5-5-5-5-5-7-|-(7)-7-7-7-7-7-7-7-|-(7)--------|-(7)----||
|-----x-x-x-x-x-x-x-|-----x-x-x-x-x-x-x-|------------|--------||
|-(3)-3-3-3-3-3-3-5-|-(5)-5-5-5-5-5-5-5-|-(5)--------|-(5)----||
|-------------------|-------------------|------------|--------||


 Bridge
  A5              Asus2   A5
  Gtrs III, IV
  PM------------|         PM-------------
|----------------------|----------------|
|----------------------|----------------|
|----------------------|----------------|
|-----------------9----|----------------|
|-7-7-7-7-7-7-7-7-7----|--7-7-7-7-7-7-7-|
|-7-7-7-7-7-7-7-7-7----|--7-7-7-7-7-7-7-|


          Asus2   Am
 ---------------|           PM-------|
|-----------------------|------------------|
|-----------------------|------------------|
|-----------------------|------------------|
|---------9-9-9-9-10----|--10-10--10-10----|
|-7-7-7-7-7-7-7-7--7----|---7--7---7--7----|
|-7-7-7-7-7-7-7-7--7----|---7--7---7--7----|


  F5                N.C.  F5              G5
  PM------------|         PM----------------------------|
|----------------------|----------------|------------------------|--------||
|----------------------|----------------|------------------------|--------||
|----------------------|----------------|------------------------|--------||
|-----------------3----|----------------|-----------------5-5--5-|-(5)----||
|-3-3-3-3-3-3-3-3-3----|--3-3-3-3-3-3-3-|-5-5-5-5-5-5-5-5-5-5--5-|-(5)----||
|-3-3-3-3-3-3-3-3-3----|--3-3-3-3-3-3-3-|-5-5-5-5-5-5-5-5-5-5--5-|-(5)----||


 Interlude
  A5              Asus2          A5
  Gtr III
  PM------------|                PM-----------------
|--------------------------|-----------------------|
|--------------------------|-----------------------|
|--------------------------|-----------------------|
|-----------------9--------|-----------------------|
|-7-7-7-7-7-7-7-7-7--------|-----7-7-7-7-7---7---7-|
|-7-7-7-7-7-7-7-7-7--------|-----7-7-7-7-7---7---7-|
|
| Gtr IV
|--------------------------|-----------------------|
|-----------------------/8-|-(8)-------------------|
|---------5-------4s5s4----|---------5---4s5s==4---|
|--------------------------|---------------------7-|
|--------------------------|-----------------------|
|--------------------------|-----------------------|


            Asus2   Am
 -----------------|                  PM----------|
|-----------------------------|-------------------------|
|-----------------------------|-------------------------|
|-----------------------------|-------------------------|
|-----------9-9-9-9-10--------|-----10-10--10-10--------|
|--7--7-7-7-7-7-7-7--7--------|------7--7---7--7--------|
|--7--7-7-7-7-7-7-7--7--------|------7--7---7--7--------|
|
|                                                 ~~~
|-----------------------------|-------------------------|
|--------------------------/8-|-(8)---------------------|
|-----------5--------4s5s4----|------4--5---4s=5--------|
|-(7)-------------------------|------------------[3]----|
|-----------------------------|-------------------------|
|-----------------------------|-------------------------|


  F5                N.C.         F5
  PM------------|                PM-----------------
|--------------------------|-----------------------|
|--------------------------|-----------------------|
|--------------------------|-----------------------|
|-----------------3--------|-----------------------|
|-3-3-3-3-3-3-3-3-3--------|-----3-3-3-3-3---3---3-|
|-3-3-3-3-3-3-3-3-3--------|-----3-3-3-3-3---3---3-|
|
|--------------------------|-----------------------|
|-----------------------/8-|-(8)-------------------|
|---------5-------4s5s4----|---------5---4s5s==4---|
|--------------------------|---------------------7-|
|--------------------------|-----------------------|
|--------------------------|-----------------------|


  G5
 -----------------|
|---------------------------|--------------------|
|---------------------------|--------------------|
|---------------------------|--------------------|
|-------------------5-5---5-|-(5)----------------|
|--5--5-5-5-5-5-5-5-5-5---5-|-(5)----------------|
|--5--5-5-5-5-5-5-5-5-5---5-|-(5)----------------|
|
|                                           ~
|---------------------------|--------------------|
|-------------------------5-|-(5)b6====(5)r-5----|
|-----------5-------4s5s4---|--------------------|
|-(7)-----------------------|--------------------|
|---------------------------|--------------------|
|---------------------------|--------------------|


  A5              Asus2            A5
  Gtr III
  PM------------|                  PM-----------------
|---------------------------|------------------------|
|---------------------------|------------------------|
|---------------------------|------------------------|
|-----------------9---------|------------------------|
|-7-7-7-7-7-7-7-7-7---------|------7-7-7-7-7---7---7-|
|-7-7-7-7-7-7-7-7-7---------|------7-7-7-7-7---7---7-|
|
| Gtr IV
|---------------------------|------------------------|
|------------------------/8-|--(8)-------------------|
|---------5-------4s5s4-----|----------5---4s5s==4---|
|---------------------------|----------------------7-|
|---------------------------|------------------------|
|---------------------------|------------------------|
|
| Gtr V
|---------------------------|------------------------|
|-----------------------/10-|-(10)-------------------|
|---------------------------|------------------------|
|---------------------------|------------------------|
|---------------------------|------------------------|
|---------------------------|------------------------|


            Asus2   Am
 -----------------|                  PM----------|
|-----------------------------|-------------------------|
|-----------------------------|-------------------------|
|-----------------------------|-------------------------|
|-----------9-9-9-9-10--------|-----10-10--10-10--------|
|--7--7-7-7-7-7-7-7--7--------|------7--7---7--7--------|
|--7--7-7-7-7-7-7-7--7--------|------7--7---7--7--------|
|
|                                                 ~~~
|-----------------------------|-------------------------|
|--------------------------/8-|-(8)---------------------|
|-----------5--------4s5s4----|------4--5---4s=5--------|
|-(7)-------------------------|------------------[3]----|
|-----------------------------|-------------------------|
|-----------------------------|-------------------------|
|
|-----------------------------|-------------------------|
|--------------------------/8-|-(8)---------------------|
|-----------------------------|-------------------------|
|-----------------------------|-------------------------|
|-----------------------------|-------------------------|
|-----------------------------|-------------------------|


  F5                N.C.         N.C.
  PM------------|                PM-----------------
|--------------------------|-----------------------|
|--------------------------|-----------------------|
|--------------------------|-----------------------|
|-----------------3--------|-----------------------|
|-3-3-3-3-3-3-3-3-3--------|-----3-3-3-3-3---3---3-|
|-3-3-3-3-3-3-3-3-3--------|-----3-3-3-3-3---3---3-|
|
|--------------------------|-----------------------|
|-----------------------/8-|-(8)-------------------|
|---------5-------4s5s4----|---------5---4s5s==4---|
|--------------------------|---------------------7-|
|--------------------------|-----------------------|
|--------------------------|-----------------------|
|
|--------------------------|-----------------------|
|-----------------------/5-|-(5)-------------------|
|--------------------------|-----------------------|
|--------------------------|-----------------------|
|--------------------------|-----------------------|
|--------------------------|-----------------------|


                                          D.S. al Coda
  G5
 -------|                   PM
|------------------------|--------------------------------||
|------------------------|--------------------------------||
|------------------------|--------------------------------||
|---------5-5-5-5--5-----|---------5--5--5----5--5--5--5--||
|--5--5-5-5-5-5-5--5-----|--5------5--5--5----5--5--5--5--||
|--5--5-5-5-5-5-5--5-----|--5------5--5--5----5--5--5--5--||
|
|                                             ~~
|------------------------|--------------------------------||
|------------------5-----|-(5)b6========(5)r--5-----------||
|-------5---4s5s4--------|--------------------------------||
|-(7)--------------------|--------------------------------||
|------------------------|--------------------------------||
|------------------------|--------------------------------||
|
|------------------------|--------------------------------||
|-----------------10-----|-10-----10-10-10---10-10-10-10--||
|-----------------12b14==|=12-----12-12-12---12-12-12-12r-||
|------------------------|--------------------------------||
|------------------------|--------------------------------||
|------------------------|--------------------------------||


   Break
    Half-Time Q=80
    &
    N.C.
    Gtr I
||--------3-(3)-----1-(1)-----0-(0)---0h1-|
||o---1---------1---------1---------1-----|
||----------------------------------------|
||--3---3---------3---------3-------------|
||o---------------------------------------|
||----------------------------------------|
|
|   Gtr II
||----------------------------------------|
||o---------------------------------------|
||----5---5-----5---5-----5---5-----5---5-|
||--3---3----3----3----3----3----3----3---|
||o---------------------------------------|
||----------------------------------------|


|-------3-(3)-----1-(1)-----0-(0)---0----|
|---1---------1---------1---------1------|
|----------------------------------------|
|----------------------------------------|
|-0---0---------0---------0--------------|
|----------------------------------------|
|
|----------------------------------------|
|----------------------------------------|
|---2---2-----2---2-----2---2-----2---2--|
|----------------------------------------|
|-0---0----0----0----0----0----0----0----|
|----------------------------------------|


  N.C.
|-------3-(3)-----1-(1)-----0-(0)---0---|
|---1---------1---------1---------1-----|
|---------------------------------------|
|---------------------------------------|
|-1---1---------1---------1-------------|
|---------------------------------------|
|
|---------------------------------------|
|---------------------------------------|
|---2---2-----2---2-----2---3-----2---2-|
|---------------------------------------|
|-1---1----1----1----1----1----1----1---|
|---------------------------------------|


|-------3-(3)-----------------0--------||
|---1---------1---------1-------------o||
|---------------------------3----------||
|--------------------------------------||
|-0---0---------0-1-(1)---1-----------o||
|--------------------------------------||
|
|--------------------------------------||
|-------------------------------------o||
|---2---2-----2---2-----2---3---2---2--||
|--------------------------------------||
|-0---0----0----0----0----0---0---0---o||
|--------------------------------------||


   Bridge
    a Tempo Q=160
    N.C.
    Gtrs III, IV
||------------------|-----------------|
||o-----------------|-----------------|
||--3-3-3-3-3-3-3-3-|-5-5-5-5-5-5-5-5-|
||--x-x-x-x-x-x-x-x-|-x-x-x-x-x-x-x-x-|
||o-1-1-1-1-1-1-1-1-|-3-3-3-3-3-3-3-3-|
||------------------|-----------------|


|-----------------|-----------------------|
|-----------------|-----------------------|
|-7-7-7-7-7-7-7-7-|-14-14-14-12-12-9-9-9--|
|-x-x-x-x-x-x-x-x-|--x--x--x--x--x-x-x-x--|
|-5-5-5-5-5-5-5-5-|-12-12-12-10-10-7-7-7--|
|-----------------|-----------------------|


  N.C.
|-------------------------|-------------------------|
|-------------------------|-------------------------|
|-10-10-10-10-10-10-10-10-|-12-12-12-12-12-12-12-12-|
|--x--x--x--x--x--x--x--x-|--x--x--x--x--x--x--x--x-|
|--8--8--8--8--8--8--8--8-|-10-10-10-10-10-10-10-10-|
|-------------------------|-------------------------|


|-------------------------|--------------------------||
|-------------------------|-------------------------o||
|-17-17-17-17-17-17-17-17-|-17-17-17-17-17-17-17-17--||
|--x--x--x--x--x--x--x--x-|--x--x--x--x--x--x--x--x--||
|-15-15-15-15-15-15-15-15-|-15-15-15-15-15-15-15-15-o||
|-------------------------|--------------------------||


 Breakdown Chorus
  Gb5         Ab5                Bb5
  Gtr III
|---------------|------------------|-------------------|-------------------|
|---------------|------------------|-------------------|-------------------|
|---------------|------------------|-------------------|-------------------|
|-4--4--4-4-4-6-|-(6)-6-6--6-6-6-8-|-(8)-8-8-8-8-8-8-8-|-(8)-8-8-8-8-8-8-8-|
|-4--4--4-4-4-6-|-(6)-6-6--6-6-6-8-|-(8)-8-8-8-8-8-8-8-|-(8)-8-8-8-8-8-8-8-|
|-4--4--4-4-4-6-|-(6)-6-6--6-6-6-8-|-(8)-8-8-8-8-8-8-8-|-(8)-8-8-8-8-8-8-8-|
|
| Gtr IV
|---------------|------------------|-------------------|-------------------|
|---------------|------------------|-------------------|-------------------|
|-6--6--6-6-6-8-|-(8)-8-8--8-8-8-6-|-(6)-6-6-6-6-6-6-6-|-(6)-6-6-5-5-5-5-5-|
|-x--x--x-x-x-x-|-----x-x--x-x-x-x-|-----x-x-x-x-x-x-x-|-----x-x-x-x-x-x-x-|
|-4--4--4-4-4-6-|-(6)-6-6--6-6-6-4-|-(4)-4-4-4-4-4-4-4-|-(4)-4-4-3-3-3-3-3-|
|---------------|------------------|-------------------|-------------------|


  Gb5         Ab5                Bb5
|---------------|------------------|
|---------------|------------------|
|---------------|------------------|
|-4--4--4-4-4-6-|-(6)-6-6--6-6-6-8-|
|-4--4--4-4-4-6-|-(6)-6-6--6-6-6-8-|
|-4--4--4-4-4-6-|-(6)-6-6--6-6-6-8-|
|
|---------------|------------------|
|---------------|------------------|
|-6--6--6-6-6-8-|-(8)-8-8--8-8-8-6-|
|-x--x--x-x-x-x-|-----x-x--x-x-x-x-|
|-4--4--4-4-4-6-|-(6)-6-6--6-6-6-4-|
|---------------|------------------|


                                            Gb5
|---------------------|-----------------------|
|---------------------|-----------------------|
|---------------------|-----------------------|
|-(8)-8-8-8-8-8--8--8-|-(8)-8--8--8--8--8-8-4-|
|-(8)-8-8-8-8-8--8--8-|-(8)-8--8--8--8--8-8-4-|
|-(8)-8-8-8-8-8--8--8-|-(8)-8--8--8--8--8-8-4-|
|
|---------------------|-----------------------|
|---------------------|-----------------------|
|-(6)-6-6---6-5-(5)-8-|-(8)-6-(6)-5-(5)-6-6-6-|
|-----x-x---x-x-----x-|-----x-----x-----x-x-x-|
|-(4)-4-4---4-3-(3)-6-|-(6)-4-(4)-3-(3)-4-4-4-|
|---------------------|-----------------------|


  Gb5             Ab5                 F5
|-------------------|--------------------|
|-------------------|--------------------|
|-------------------|--------------------|
|-(4)-4-4-4-4-4-4-6-|-(6)-6-6-6-6-6-6--3-|
|-(4)-4-4-4-4-4-4-6-|-(6)-6-6-6-6-6-6--3-|
|-(4)-4-4-4-4-4-4-6-|-(6)-6-6-6-6-6-6--3-|
|
|-------------------|--------------------|
|-------------------|--------------------|
|-(6)-6-6-6-6-6-6-8-|-(8)-8-8-8-8-8-8-10-|
|-----x-x-x-x-x-x-x-|-----x-x-x-x-x-x--x-|
|-(4)-4-4-4-4-4-4-6-|-(6)-6-6-6-6-6-6--8-|
|-------------------|--------------------|


                         Gb5
|--------------------------|-------------------|
|--------------------------|-------------------|
|--------------------------|-------------------|
|--(3)--3--3--3--3--3--3-4-|-(4)-4-4-4-4-4-4-4-|
|--(3)--3--3--3--3--3--3-4-|-(4)-4-4-4-4-4-4-4-|
|--(3)--3--3--3--3--3--3-4-|-(4)-4-4-4-4-4-4-4-|
|
|--------------------------|-------------------|
|--------------------------|-------------------|
|-(10)-10-10-17-17-17-17-6-|-(6)-6-6-6-6-6-6-6-|
|-------x--x--x--x--x--x-x-|-----x-x-x-x-x-x-x-|
|--(8)--8--8-15-15-15-15-4-|-(4)-4-4-4-4-4-4-4-|
|--------------------------|-------------------|


  Gb5             Ab5
|-------------------|-------------------|------------|--------||
|-------------------|-------------------|------------|--------||
|-------------------|-------------------|------------|--------||
|-(4)-4-4-4-4-4-4-6-|-(6)-6-6-6-6-6-6-6-|-(6)--------|-(6)----||
|-(4)-4-4-4-4-4-4-6-|-(6)-6-6-6-6-6-6-6-|-(6)--------|-(6)----||
|-(4)-4-4-4-4-4-4-6-|-(6)-6-6-6-6-6-6-6-|-(6)--------|-(6)----||
|
|-------------------|-------------------|------------|--------||
|-------------------|-------------------|------------|--------||
|-(6)-6-6-6-6-6-6-8-|-(8)-8-8-8-8-8-8-8-|-(8)--------|-(8)----||
|-----x-x-x-x-x-x-x-|-----x-x-x-x-x-x-x-|------------|--------||
|-(4)-4-4-4-4-4-4-6-|-(6)-6-6-6-6-6-6-6-|-(6)--------|-(6)----||
|-------------------|-------------------|------------|--------||


 Out-Chorus
  Gb5           Ab5                 Bb5
|-----------------|-------------------|-------------------|-------------------|
|-----------------|-------------------|-------------------|-------------------|
|-----------------|-------------------|-------------------|-------------------|
|-4-4-4-4-4-4-4-6-|-(6)-6-6-6-6-6-6-8-|-(8)-8-8-8-8-8-8-8-|-(8)-8-8-8-8-8-8-8-|
|-4-4-4-4-4-4-4-6-|-(6)-6-6-6-6-6-6-8-|-(8)-8-8-8-8-8-8-8-|-(8)-8-8-8-8-8-8-8-|
|-4-4-4-4-4-4-4-6-|-(6)-6-6-6-6-6-6-8-|-(8)-8-8-8-8-8-8-8-|-(8)-8-8-8-8-8-8-8-|
|
|-----------------|-------------------|-------------------|-------------------|
|-----------------|-------------------|-------------------|-------------------|
|-6-6-6-6-6-6-6-8-|-(8)-8-8-8-8-8-8-6-|-(6)-6-6-6-6-6-6-6-|-(6)-6-6-5-5-5-5-6-|
|-x-x-x-x-x-x-x-x-|-----x-x-x-x-x-x-x-|-----x-x-x-x-x-x-x-|-----x-x-x-x-x-x-x-|
|-4-4-4-4-4-4-4-6-|-(6)-6-6-6-6-6-6-4-|-(4)-4-4-4-4-4-4-4-|-(4)-4-4-3-3-3-3-4-|
|-----------------|-------------------|-------------------|-------------------|


  Gb5           Ab5                   Bb5
|-----------------|---------------------|
|-----------------|---------------------|
|-----------------|---------------------|
|-4-4-4-4-4-4-4-6-|-(6)-6-6-6-6-6--6--8-|
|-4-4-4-4-4-4-4-6-|-(6)-6-6-6-6-6--6--8-|
|-4-4-4-4-4-4-4-6-|-(6)-6-6-6-6-6--6--8-|
|
|-----------------|---------------------|
|-----------------|---------------------|
|-6-6-6-6-6-6-6-8-|-(8)-8-8-8-8-5-(5)-6-|
|-x-x-x-x-x-x-x-x-|-----x-x-x-x-x-----x-|
|-4-4-4-4-4-4-4-6-|-(6)-6-6-6-6-3-(3)-4-|
|-----------------|---------------------|


                                           Gb5
|--------------------|-----------------------|
|--------------------|-----------------------|
|--------------------|-----------------------|
|-(8)-8-8-8-8-8--8-8-|-(8)-8--8--8--8--8-8-4-|
|-(8)-8-8-8-8-8--8-8-|-(8)-8--8--8--8--8-8-4-|
|-(8)-8-8-8-8-8--8-8-|-(8)-8--8--8--8--8-8-4-|
|
|--------------------|-----------------------|
|--------------------|-----------------------|
|-(6)-6-6---6-8-10-8-|-(8)-6-(6)-5-(5)-6-6-6-|
|-----x-x---x-x--x-x-|-----x-----x-----x-x-x-|
|-(4)-4-4---4-6--8-6-|-(6)-4-(4)-3-(3)-4-4-4-|
|--------------------|-----------------------|


  Gb5             Ab5                 F5
|-------------------|--------------------|
|-------------------|--------------------|
|-------------------|--------------------|
|-(4)-4-4-4-4-4-4-6-|-(6)-6-6-6-6-6-6--3-|
|-(4)-4-4-4-4-4-4-6-|-(6)-6-6-6-6-6-6--3-|
|-(4)-4-4-4-4-4-4-6-|-(6)-6-6-6-6-6-6--3-|
|
|-------------------|--------------------|
|-------------------|--------------------|
|-(6)-6-6-6-6-6-6-8-|-(8)-8-8-8-8-8-8-14-|
|-----x-x-x-x-x-x-x-|-----x-x-x-x-x-x--x-|
|-(4)-4-4-4-4-4-4-6-|-(6)-6-6-6-6-6-6-12-|
|-------------------|--------------------|


                         Gb5
|---------------------------|---------------------------|
|---------------------------|---------------------------|
|---------------------------|---------------------------|
|--(3)--3--3--3--3--3--3--4-|--(4)--4--4--4--4--4--4--4-|
|--(3)--3--3--3--3--3--3--4-|--(4)--4--4--4--4--4--4--4-|
|--(3)--3--3--3--3--3--3--4-|--(4)--4--4--4--4--4--4--4-|
|
|---------------------------|---------------------------|
|---------------------------|---------------------------|
|-(14)-14-14-14-14-14-14-15-|-(15)-15-15-15-15-15-15-15-|
|-------x--x--x--x--x--x--x-|-------x--x--x--x--x--x--x-|
|-(12)-12-12-12-12-12-12-13-|-(13)-13-13-13-13-13-13-13-|
|---------------------------|---------------------------|


  Gb5                   Ab5
|--------------------------|
|--------------------------|
|--------------------------|
|--(4)--4--4-4--4--4--4--6-|
|--(4)--4--4-4--4--4--4--6-|
|--(4)--4--4-4--4--4--4--6-|
|
|--------------------------|
|--------------------------|
|-(15)-15-15---18-18-18-17-|
|-------x--x----x--x--x--x-|
|-(13)-13-13---16-16-16-15-|
|--------------------------|


|---------------------------|-------------|---------*|
|---------------------------|-------------|---------*|
|---------------------------|-------------|---------*|
|--(6)--6--6--6--6--6--6--6-|--(6)--------|--(6)----*|
|--(6)--6--6--6--6--6--6--6-|--(6)--------|--(6)----*|
|--(6)--6--6--6--6--6--6--6-|--(6)--------|--(6)----*|
|
|---------------------------|-------------|---------*|
|---------------------------|-------------|---------*|
|-(17)-17-17-17-17-17-17-17-|-(17)--------|-(17)----*|
|-------x--x--x--x--x--x--x-|-------------|---------*|
|-(15)-15-15-15-15-15-15-15-|-(15)--------|-(15)----*|
|---------------------------|-------------|---------*|


7. THE REMEMBRANCE BALLAD

Gtr I (C G C F A D)
Gtr II (C G C F A D) 
Gtr III (C G C F A D) 
Gtr IV (C G C F A D)
Gtr V (C G C F A D) 
Gtr VI (C G C F A D) 
 Intro
  Gtr I
|---------------------------------------------------|-------------------------|
|---------------------------------------------------|-------------------------|
|--7------------------------------------------------|--10---------------------|
|--0------------------------------------------------|--10---------------------|
|--0------------------------------------------------|---8---------------------|
|--0------------------------------------------------|---8---------------------|
|
| Gtr II
|---------------------------------------------------|-------------------------|
|-------15-/17-(17)-18-(18)-(18)-17-(17)-18-(18)----|-------------------------|
|----14------------------------------------------17-|-(17)-19p17-19----(19)\--|
|-12------------------------------------------------|-------------------------|
|---------------------------------------------------|-------------------------|
|---------------------------------------------------|-------------------------|


  D5                                              Bbsus2
|-----------------------------------------------|---------------------------------------------||
|-----------------------------------------------|---------------------------------------------||
|--7--------------------------------------------|-10------------------------------------------||
|--0--------------------------------------------|-10------------------------------------------||
|--0--------------------------------------------|--8------------------------------------------||
|--0--------------------------------------------|--8------------------------------------------||
|
|--------------------------------------17-18-20-|-20-18-17------------------------------------||
|-------15-/17-(17)-18-(18)-(18)----18----------|----------20---20b22r(20)-18-17-18-----------||
|----14--------------------------17-------------|-----------------------------------19-(19)\--||
|-12--------------------------------------------|---------------------------------------------||
|-----------------------------------------------|---------------------------------------------||
|-----------------------------------------------|---------------------------------------------||


 Pre-Verse
  Dsus2                            Dm
|-----------------------------------------------------------|
|-----------------------------------------------------------|
|--9--9--9---9---9---9---9--9---9--10-10-10--10--10--10--10-|
|--0--0--0---0---0---0---0--0---0---0--0--0---0---0---0---0-|
|--0--0--0---0---0---0---0--0---0---0--0--0---0---0---0---0-|
|--0--0--0---0---0---0---0--0---0---0--0--0---0---0---0---0-|
|
|-----------------------------------------------------------|
|-------15-/17-(17)-18-(18)---(18)-------17-(17)-18-(18)----|
|----14--------------------------------------------------17-|
|-12--------------------------------------------------------|
|-----------------------------------------------------------|
|-----------------------------------------------------------|


  Bbsus2                          Bb
|----------------------------------------------------------|
|----------------------------------------------------------|
|----------------------------------------------------------|
|--10--10-10-10----10-10-10-10-10-12-12-12--12---12-12-12--|
|---8---8--8--8-----8--8--8--8--8--8--8--8---8----8--8--8--|
|---8---8--8--8-----8--8--8--8--8--8--8--8---8----8--8--8--|
|
|----------------------------------------------------------|
|----------------------------------------------------------|
|-(17)-------19p17-19----------------------(19)\-----------|
|----------------------------------------------------------|
|----------------------------------------------------------|
|----------------------------------------------------------|


  Dsus2                            Dm
|----------------------------------------------------------------|
|----------------------------------------------------------------|
|--9--9--9---9---9---9---9--9---9--10-10-10----10-10----10----10-|
|--0--0--0---0---0---0---0--0---0---0--0--0-----0--0-----0-----0-|
|--0--0--0---0---0---0---0--0---0---0--0--0-----0--0-----0-----0-|
|--0--0--0---0---0---0---0--0---0---0--0--0-----0--0-----0-----0-|
|
|----------------------------------------------17----18----20----|
|-------15-/17-(17)-18-(18)---(18)----------18-------------------|
|----14----------------------------------17----------------------|
|-12-------------------------------------------------------------|
|----------------------------------------------------------------|
|----------------------------------------------------------------|


  Bbsus2                       Bb
|-----------------------------------------------------------|
|-----------------------------------------------------------|
|-----------------------------------------------------------|
|-10-10-10-10--10--10-10-10-10-12-----12--12-12-12-12--12---|
|--8--8--8--8---8---8--8--8--8--8------8---8--8--8--8---8---|
|--8--8--8--8---8---8--8--8--8--8------8---8--8--8--8---8---|
|
|-20----22-18-(18)------------------------------------------|
|------------------------------20b22r(20)-18-17-18----------|
|--------------------------------------------------19-(19)\-|
|-----------------------------------------------------------|
|-----------------------------------------------------------|
|-----------------------------------------------------------|


  Dsus2                            Dm                         Bbsus2                          Bb
|-----------------------------------------------------------|---------------------------------------------------------|
|-----------------------------------------------------------|---------------------------------------------------------|
|--9--9--9---9---9---9---9--9---9--10-10-10--10--10--10--10-|---------------------------------------------------------|
|--0--0--0---0---0---0---0--0---0---0--0--0---0---0---0---0-|--10--10-10-10----10-10-10-10-10-12-12-12--12---12-12-12-|
|--0--0--0---0---0---0---0--0---0---0--0--0---0---0---0---0-|---8---8--8--8-----8--8--8--8--8--8--8--8---8----8--8--8-|
|--0--0--0---0---0---0---0--0---0---0--0--0---0---0---0---0-|---8---8--8--8-----8--8--8--8--8--8--8--8---8----8--8--8-|
|
|-----------------------------------------------------------|---------------------------------------------------------|
|-------15-/17-(17)-18-(18)---(18)-------17-(17)-18-(18)----|---------------------------------------------------------|
|----14--------------------------------------------------17-|-(17)-------19p17-19----------------------(19)\----------|
|-12--------------------------------------------------------|---------------------------------------------------------|
|-----------------------------------------------------------|---------------------------------------------------------|
|-----------------------------------------------------------|---------------------------------------------------------|


  Dsus2                            Dm
|----------------------------------------------------------------|
|----------------------------------------------------------------|
|--9--9--9---9---9---9---9--9---9--10-10-10----10-10----10----10-|
|--0--0--0---0---0---0---0--0---0---0--0--0-----0--0-----0-----0-|
|--0--0--0---0---0---0---0--0---0---0--0--0-----0--0-----0-----0-|
|--0--0--0---0---0---0---0--0---0---0--0--0-----0--0-----0-----0-|
|
|----------------------------------------------17----18----20----|
|-------15-/17-(17)-18-(18)---(18)----------18-------------------|
|----14----------------------------------17----------------------|
|-12-------------------------------------------------------------|
|----------------------------------------------------------------|
|----------------------------------------------------------------|


  Bbsus2                           Bb                          A5
|------------------------------------------------------------|-------||
|------------------------------------------------------------|-------||
|------------------------------------------------------------|-------||
|-10----10-10-10----10-10-10-10-10-12-----12--12-12-12-12-12-|--7----||
|--8-----8--8--8-----8--8--8--8--8--8------8---8--8--8--8--8-|--7----||
|--8-----8--8--8-----8--8--8--8--8--8------8---8--8--8--8--8-|--7----||
|
|-20b22-------20-18-20-------------20b22r(20)-18-17----------|-------||
|---------------------------------------------------18-------|-------||
|------------------------------------------------------17----|-------||
|---------------------------------------------------------20-|-19----||
|------------------------------------------------------------|-------||
|------------------------------------------------------------|-------||


 Verse
  D5
      PM---|                   PM--|       PM
|----------------------------------------------|
|----------------------------------------------|
|----------------------------------------------|
|--0----------0-(0)--------(0)-------0-(0)---0-|
|--0--0--0--0-0-(0)--------(0)-0-0-0-0-(0)-0-0-|
|--0--0--0--0-0-(0)--------(0)-0-0-0-0-(0)-0-0-|
|
|  PM---|
|----------------------------------------------|
|----------------------------------------------|
|----------10----9-----------------------------|
|-12----12----------10-12-(12)-----------------|
|----12----------------------------------------|
|----------------------------------------------|


  Bb/D
      PM---|                 PM--|       PM
|---------------------------------------------|
|---------------------------------------------|
|---------------------------------------------|
|--0----------0-(0)------(0)-------0-(0)----0-|
|--1--1--1--1-1-(1)------(1)-1-1-1-1-(1)-1--1-|
|--0--0--0--0-0-(0)------(0)-0-0-0-0-(0)-0--0-|
|
|  PM---|
|---------------------------------------------|
|---------------------------------------------|
|----------10----9----------------------------|
|-12----12----------10-8-(8)----------8s10-10-|
|----12---------------------------------------|
|---------------------------------------------|


  D5
      PM---|                   PM--|       PM
|----------------------------------------------|
|----------------------------------------------|
|----------------------------------------------|
|--0----------0-(0)--------(0)-------0-(0)---0-|
|--0--0--0--0-0-(0)--------(0)-0-0-0-0-(0)-0-0-|
|--0--0--0--0-0-(0)--------(0)-0-0-0-0-(0)-0-0-|
|
|  PM---|
|----------------------------------------------|
|----------------------------------------------|
|----------10----9-----------------------------|
|-12----12----------10-12-(12)-----------------|
|----12----------------------------------------|
|----------------------------------------------|


  Bb/D
      PM---|                   PM--|        PM
|----------------------------------------------------|
|----------------------------------------------------|
|----------------------------------------------------|
|--0----------0-(0)------(0)----------0-(0)------0---|
|--1--1--1--1-1-(1)------(1)---1-1--1-1-(1)-1----1---|
|--0--0--0--0-0-(0)------(0)---0-0--0-0-(0)-0----0---|
|
|  PM---|
|----------------------------------------------------|
|----------------------------------------------------|
|----------10----9-----------/12---10----9h10p9------|
|-12----12----------10-8-(8)--------------------10p0-|
|----12----------------------------------------------|
|----------------------------------------------------|


  D5
   PM---------------|              PM--|       PM
|--------------------------------------------------|
|--------------------------------------------------|
|--------------------------------------------------|
|----------------------------------------0-(0)---0-|
|--0-0--0-0--0-0--0-0--------------0-0-0-0-(0)-0-0-|
|--0-0--0-0--0-0--0-0--------------0-0-0-0-(0)-0-0-|
|
|  PM-------|
|--------------------------------------------------|
|--------------------------------------------------|
|----------------10---9----------------------------|
|-12--------12----------10-12-(12)-----------------|
|------12------------------------------------------|
|--------------------------------------------------|


  Bb5                                  Bb/D Bb5Bb/D
   PM---------------|            PM--|       PM
|-------------------------------------------------|
|-------------------------------------------------|
|-------------------------------------------------|
|--3-3--3-3--3-3--3-3------------3-3-3-0-(0)-3--0-|
|--1-1--1-1--1-1--1-1------------1-1-1-1-(1)-1--1-|
|--------------------------------------0-(0)----0-|
|
|  PM-------|
|-------------------------------------------------|
|-------------------------------------------------|
|----------------10---9---------------------------|
|-12--------12----------10-8-(8)----------8s10-10-|
|------12-----------------------------------------|
|-------------------------------------------------|


  D5
   PM---------------|              PM--|       PM
|--------------------------------------------------|
|--------------------------------------------------|
|--------------------------------------------------|
|----------------------------------------0-(0)---0-|
|--0-0--0-0--0-0--0-0--------------0-0-0-0-(0)-0-0-|
|--0-0--0-0--0-0--0-0--------------0-0-0-0-(0)-0-0-|
|
|  PM-------|
|--------------------------------------------------|
|--------------------------------------------------|
|----------------10---9----------------------------|
|-12--------12----------10-12-(12)-----------------|
|------12------------------------------------------|
|--------------------------------------------------|


  Bb5                                     Bb/D Bb5  Bb/D
   PM---------------|              PM--|        PM
|--------------------------------------------------------||
|--------------------------------------------------------||
|--------------------------------------------------------||
|--3-3--3-3--3-3--3-3--------------3-3--3-0-(0)-3----0---||
|--1-1--1-1--1-1--1-1--------------1-1--1-1-(1)-1----1---||
|-----------------------------------------0-(0)------0---||
|
|  PM-------|
|--------------------------------------------------------||
|--------------------------------------------------------||
|----------------10---9----------/12---10----9h10p9------||
|-12--------12----------10-8-(8)--------------------10p0-||
|------12------------------------------------------------||
|--------------------------------------------------------||


 Pre-Chorus
  $
  G5              A5                Bb5                C5
|---------------------------------|--------------------------------------------|
|---------------------------------|--------------------------------------------|
|---------------------------------|--------------------------------------------|
|-5-5-5-5-5-5-5-5-7-7-7-7-7-7-7-7-|--8--8--8-8-8-8-8-8-10-10-10-10-10-10-10-10-|
|-5-5-5-5-5-5-5-5-7-7-7-7-7-7-7-7-|--8--8--8-8-8-8-8-8-10-10-10-10-10-10-10-10-|
|-5-5-5-5-5-5-5-5-7-7-7-7-7-7-7-7-|--8--8--8-8-8-8-8-8-10-10-10-10-10-10-10-10-|
|
|---------------------------------|--------------------------------------------|
|---------------------------------|--------------------------------------------|
|-7-7-7-7-7-7-7-7-6-6-6-7-7-7-9-9-|-10-10-10-9-9-9-7-7-12-12-12-10-10-10-12-12-|
|-x-x-x-x-x-x-x-x-x-x-x-x-x-x-x-x-|--x--x--x-x-x-x-x-x--x--x--x--x--x--x--x--x-|
|-5-5-5-5-5-5-5-5-4-4-4-5-5-5-7-7-|--8--8--8-7-7-7-5-5-10-10-10--8--8--8-10-10-|
|---------------------------------|--------------------------------------------|


  D5                      C5
|-------------------------------------------------|
|-------------------------------------------------|
|-------------------------------------------------|
|--0--0--0--0--0--0--0--0-10-10-10-10-10-10-10-10-|
|--0--0--0--0--0--0--0--0-10-10-10-10-10-10-10-10-|
|--0--0--0--0--0--0--0--0-10-10-10-10-10-10-10-10-|
|
|-------------------------------------------------|
|-------------------------------------------------|
|-14-14-14-12-12-12-10-10--9--9--9-10-10-10-12-12-|
|--x--x--x--x--x--x--x--x--x--x--x--x--x--x--x--x-|
|-12-12-12-10-10-10--8--8--7--7--7--8--8--8-10-10-|
|-------------------------------------------------|


  Bb5
|----------------------------||
|----------------------------||
|----------------------------||
|-8-----(8)-8-8-8-8-8-8-8-8--||
|-8-----(8)-8-8-8-8-8-8-8-8--||
|-8-----(8)-8-8-8-8-8-8-8-8--||
|
|----------------------------||
|----------------------------||
|-7-14-(14)------------------||
|-x--x-----------------------||
|-5-12-(12)------------------||
|----------------------------||


   Chorus
    $$
    F5
||-----------------------------------------------|
||o----------------------------------------------|
||-----------------------------------------------|
||--3--3--3-3--3--3--3-3---3---3--3-3--3--3--3-3-|
||o-3--3--3-3--3--3--3-3---3---3--3-3--3--3--3-3-|
||--3--3--3-3--3--3--3-3---3---3--3-3--3--3--3-3-|
|
||-----------------------------------------------|
||o----------------------------------------------|
||-------10-9-(9)---10---(10)----10-9-(9)---10---|
||----10----------------------10-----------------|
||o-8--------------------------------------------|
||-----------------------------------------------|


  D5
|------------------------------------------------|
|------------------------------------------------|
|------------------------------------------------|
|--0--0--0-0--0--0--0-0---0---0--0-0--0--0--0-0--|
|--0--0--0-0--0--0--0-0---0---0--0-0--0--0--0-0--|
|--0--0--0-0--0--0--0-0---0---0--0-0--0--0--0-0--|
|
|------------------------------------------------|
|------------------------------------------------|
|-------10-9-(9)---10---(10)----10-9-(9)---10----|
|------------------------------------------------|
|----12----------------------12------------------|
|-12---------------------------------------------|


  1.
  Bb5
|--------------------------------------------|
|--------------------------------------------|
|--------------------------------------------|
|-8-8--8-8--8--8--8-8---8--8--8-8--8--8--8-8-|
|-8-8--8-8--8--8--8-8---8--8--8-8--8--8--8-8-|
|-8-8--8-8--8--8--8-8---8--8--8-8--8--8--8-8-|
|
|--------------------------------------------|
|--------------------------------------------|
|-----10-9-(9)---10---(10)---10-9-(9)---10---|
|--------------------------------------------|
|---8----------------------8-----------------|
|-8------------------------------------------|


  A5                  C5
|-------------------------------------------------||
|------------------------------------------------o||
|-------------------------------------------------||
|-7-7--7-7--7--7--7-7--10--10-10-10-10--10-10-10--||
|-7-7--7-7--7--7--7-7--10--10-10-10-10--10-10-10-o||
|-7-7--7-7--7--7--7-7--10--10-10-10-10--10-10-10--||
|
|-------------------------------------------------||
|------------------------------------------------o||
|-----10-9-(9)---10---(10)----10--9-(9)-----------||
|------------------------------------------10-----||
|---7-----------------------7--------------------o||
|-7-----------------------------------------------||


  2.
  Bb5
|--------------------------------------------|
|--------------------------------------------|
|--------------------------------------------|
|-8-8--8-8--8--8--8-8---8--8--8-8--8--8--8-8-|
|-8-8--8-8--8--8--8-8---8--8--8-8--8--8--8-8-|
|-8-8--8-8--8--8--8-8---8--8--8-8--8--8--8-8-|
|
|--------------------------------------------|
|--------------------------------------------|
|-----10-9-(9)---10---(10)---10-9-(9)---10---|
|--------------------------------------------|
|---8----------------------8-----------------|
|-8------------------------------------------|


                                     To Coda
                                     To Coda
  A5                  C5
|----------------------------------------------||
|----------------------------------------------||
|----------------------------------------------||
|-7-7--7-7--7--7--7-7-10-10-10-10-10--10-10-10-||
|-7-7--7-7--7--7--7-7-10-10-10-10-10--10-10-10-||
|-7-7--7-7--7--7--7-7-10-10-10-10-10--10-10-10-||
|
|----------------------------------------------||
|----------------------------------------------||
|-----10-9-(9)---10---12-10--9--9-(9)-10-------||
|----------------------------------------10----||
|---7------------------------------------------||
|-7--------------------------------------------||


 Verse
  Gtr V
                     |
                     o

  Gtr III
|------------------|-------------------------|
|------------------|-------------------------|
|-------7-(7)------|-------7-(7)-----(7)-----|
|-----7------------|-----8-----------------8-|
|-3s5--------------|-3s5---------------------|
|-0----------------|-0-----------------------|
|
| Gtr IV
|------------------|-------------------------|
|------------------|-------------------------|
|------------------|---------<5>-------------|
|---------<5>------|-------------------------|
|------------------|-------------------------|
|------------------|-------------------------|
|
| Gtr I
|------------------|-------------------------|
|------------------|-------------------------|
|------------------|---------------2-(2)b3---|
|------------------|-------------------------|
|------------------|-------------------------|
|------------------|-------------------------|


   |                   |
   /                   /

|--------------------|--------------------------|
|--------------------|--------------------------|
|---------7-(7)------|-------7-(7)-----(7)------|
|-------7------------|-----8-----------------8--|
|--3s=5--------------|-3s5----------------------|
|--0-----------------|-0------------------------|
|
|--------------------|--------------------------|
|--------------------|--------------------------|
|--------------------|---------<5>--------------|
|-----------<5>------|--------------------------|
|--------------------|--------------------------|
|--------------------|--------------------------|
|
|--------------------|--------------------------|
|--------------------|--------------------------|
|-(2)----------------|---------------2-(2)b3----|
|--------------------|--------------------------|
|--------------------|--------------------------|
|--------------------|--------------------------|


  N.C.
|----------------------------------------|-----------------------|
|----------------------------------------|-----------------------|
|-----------7--(7)-----------------------|--------7-(7)----(7)---|
|---------7------------------------------|------8--------------8-|
|--3s=5----------------------------------|--3s5------------------|
|--0-------------------------------------|--0--------------------|
|
|----------------------------------------|-----------------------|
|----------------------------------------|-----------------------|
|----------------------------------------|----------<5>----------|
|--------------<5>-----------------------|-----------------------|
|----------------------------------------|-----------------------|
|----------------------------------------|-----------------------|
|
|     Gtr V
|----------------------------------------|-----------------------|
|-------/10---(10)--10-(10)s8-(8)-(8)s10-|-11--------------------|
|-(2)------------------------------------|-----------------------|
|----------------------------------------|-----------------------|
|----------------------------------------|-----------------------|
|----------------------------------------|-----------------------|


                                                D.S. al Coda
|-------------------------------------|-----------------------||
|-------------------------------------|-----------------------||
|---------7-(7)-----------------------|--------7-(7)----(7)---||
|-------7-----------------------------|------8--------------8-||
|---3s5-------------------------------|--3s5------------------||
|---0---------------------------------|--0--------------------||
|
|-------------------------------------|-----------------------||
|-------------------------------------|-----------------------||
|-------------------------------------|----------<5>----------||
|-----------<5>-----------------------|-----------------------||
|-------------------------------------|-----------------------||
|-------------------------------------|-----------------------||
|
|-------------------------------------|-----------------------||
|-/10------------10-(10)s8-(8)-(8)s10-|-11--------------------||
|-------------------------------------|-----------------------||
|-------------------------------------|-----------------------||
|-------------------------------------|-----------------------||
|-------------------------------------|-----------------------||


 Guitar Solo
  &
  G5
  Gtr I
|-----------------------------------------------|
|-----------------------------------------------|
|-----------------------------------------------|
|-5-----5--5-5--5--5-5-5--5---5-5-5-5----5--5-5-|
|-5-----5--5-5--5--5-5-5--5---5-5-5-5----5--5-5-|
|-5-----5--5-5--5--5-5-5--5---5-5-5-5----5--5-5-|
|
| Gtr II
|               ~~~~~~~~~~~~~~
|-------------------------------3---------------|
|-----------------------------3-----------------|
|-5b7==(5)-----(5)-------(5)r-------5b7r(5)-3-2-|
|-----------------------------------------------|
|-----------------------------------------------|
|-----------------------------------------------|


  Bb5
|-------------------------------------|
|-------------------------------------|
|-------------------------------------|
|-8-8-8-8--8--8-8-8-8-8-8-8--8--8-8-8-|
|-8-8-8-8--8--8-8-8-8-8-8-8--8--8-8-8-|
|-8-8-8-8--8--8-8-8-8-8-8-8--8--8-8-8-|
|
|          ~~~~~~~~~~~~~~~~~~~~~
|-------------------------------------|
|-------------------------------------|
|-3---2-------------------------------|
|-------3-(3)---------------(3)---3-0-|
|-------------------------------------|
|-------------------------------------|


  F5
  Gtr I
|-----------------------------------|
|-----------------------------------|
|-----------------------------------|
|-3-3-3-3-3-3-3-3--3--3-3-3-3-3-3-3-|
|-3-3-3-3-3-3-3-3--3--3-3-3-3-3-3-3-|
|-3-3-3-3-3-3-3-3--3--3-3-3-3-3-3-3-|
|
| Gtr II
| PM----|          ~~~
|-----------------------------------|
|-----------------------------------|
|-----------------------------------|
|-2-3-5-3p2h3p2---(2)-----------2-3-|
|-----------------------------------|
|-----------------------------------|
|
| Gtr V
|-----------------------------------|
|-----------------------------------|
|-----------------------------------|
|-----------------------------------|
|-----------------------------------|
|-----------------------------------|


  C/E
|--------------------------------------------------------------|
|--------------------------------------------------------------|
|--------------------------------------------------------------|
|--2-2-2-2-2-2-2-2--2----2-----2----2-----2----2-----2----2----|
|--3-3-3-3-3-3-3-3--3----3-----3----3-----3----3-----3----3----|
|--2-2-2-2-2-2-2-2--2----2-----2----2-----2----2-----2----2----|
|
|  ~~
|--------------------------------------------------------------|
|--------------------------------------------------------------|
|--------------------------------------------------------------|
|-/5-----------------------------------------------------------|
|--------------------------------------------------------------|
|--------------------------------------------------------------|
|
|                   PM-----------|
|--------------------------------------------------------------|
|---------------------------------------------------15-17---18-|
|----------------------------------------14-15---17------------|
|-----------------------------15-17---19-----------------------|
|------------------15-17---19----------------------------------|
|--------------------------------------------------------------|


  G5
|------------------------------------------------|
|------------------------------------------------|
|------------------------------------------------|
|--5----5-5-5--5--5--5-5---5--5-5-5--5----5--5-5-|
|--5----5-5-5--5--5--5-5---5--5-5-5--5----5--5-5-|
|--5----5-5-5--5--5--5-5---5--5-5-5--5----5--5-5-|
|
|  ~~~~~~~~~~~~~~~~~~~~~~~~~~~~~~~~~~~~~~~~~~~~~~~
|------------------------------------------------|
|------------------------------------------------|
|------------------------------------------------|
|-(5)--------------------------------------------|
|------------------------------------------------|
|------------------------------------------------|
|
|-------------------------------------------20---|
|-18b20-------18-17-18---(18)-------20b22--------|
|------------------------------------------------|
|------------------------------------------------|
|------------------------------------------------|
|------------------------------------------------|


  Bb5
|------------------------------------------------------|
|------------------------------------------------------|
|------------------------------------------------------|
|--8-----8-8--------8------8-8-8-8-8-8-8-8---8--8--8-8-|
|--8-----8-8--------8------8-8-8-8-8-8-8-8---8--8--8-8-|
|--8-----8-8--------8------8-8-8-8-8-8-8-8---8--8--8-8-|
|
|  >
|~~~~~~~~
|------------------------------------------------------|
|------------------------------------------------------|
|------------------------------------------------------|
|-(5)--------------------------------------------------|
|------------------------------------------------------|
|------------------------------------------------------|
|
|                          ~~~~~~~~~~~~~~~~~~~~~
|------------------------------------------------------|
|-20b22======(20)r(20)-18-20---------------(20)---18---|
|------------------------------------------------------|
|------------------------------------------------------|
|------------------------------------------------------|
|------------------------------------------------------|


  F5
  Gtr I
|---------------------------------------------------|
|---------------------------------------------------|
|---------------------------------------------------|
|--3-----3-3-3---3----3-3--3--3--3--3--3---3--3-3-3-|
|--3-----3-3-3---3----3-3--3--3--3--3--3---3--3-3-3-|
|--3-----3-3-3---3----3-3--3--3--3--3--3---3--3-3-3-|
|
| Gtr V
|                                          ~~~~
|-20b22========(20)r-20---18-17---------------------|
|-------------------------------18------------------|
|----------------------------------17-17-(17)-------|
|---------------------------------------------------|
|---------------------------------------------------|
|---------------------------------------------------|


  C/E
|-----------------------------------------------------------------------------------------------||
|-----------------------------------------------------------------------------------------------||
|-----------------------------------------------------------------------------------------------||
|--2----2-----2----2-----2----2-----2----2-----2---------2-----2----2-----2----2-----2----2-----||
|--3----3-----3----3-----3----3-----3----3-----3---------3-----3----3-----3----3-----3----3-----||
|--2----2-----2----2-----2----2-----2----2-----2---------2-----2----2-----2----2-----2----2-----||
|
|  PM-----|
|----------------------------------17-18---20-20b22r(20)---18-20-18---17-18-17------------------||
|-----------------------17-18---20-----------------------------------------------20-17-18---20--||
|------------17-19---20-------------------------------------------------------------------------||
|-17-19---20------------------------------------------------------------------------------------||
|-----------------------------------------------------------------------------------------------||
|-----------------------------------------------------------------------------------------------||


 Pre-Chorus
  G5                   A5
  Gtr I
|--------------------------------------|
|--------------------------------------|
|--------------------------------------|
|--5-5-5-5-5-5---5---5-7-7-7-7-7-7-7-7-|
|--5-5-5-5-5-5---5---5-7-7-7-7-7-7-7-7-|
|--5-5-5-5-5-5---5---5-7-7-7-7-7-7-7-7-|
|
| Gtr II
|--------------------------------------|
|--------------------------------------|
|--7-7-7-7-7-7---7---7-6-6-6-7-7-7-9-9-|
|--x-x-x-x-x-x---x---x-x-x-x-x-x-x-x-x-|
|--5-5-5-5-5-5---5---5-4-4-4-5-5-5-7-7-|
|--------------------------------------|
|
| Gtr V
|  ~~
|--------------------------------------|
|-18-----------(18)\-------------------|
|--------------------------------------|
|--------------------------------------|
|--------------------------------------|
|--------------------------------------|


  Bb5                C5
|--------------------------------------------|
|--------------------------------------------|
|--------------------------------------------|
|--8--8--8-8-8-8-8-8-10-10-10-10-10-10-10-10-|
|--8--8--8-8-8-8-8-8-10-10-10-10-10-10-10-10-|
|--8--8--8-8-8-8-8-8-10-10-10-10-10-10-10-10-|
|
|--------------------------------------------|
|--------------------------------------------|
|-10-10-10-9-9-9-7-7-12-12-12-10-10-10-12-12-|
|--x--x--x-x-x-x-x-x--x--x--x--x--x--x--x--x-|
|--8--8--8-7-7-7-5-5-10-10-10--8--8--8-10-10-|
|--------------------------------------------|
|
|--------------------------------------------|
|--------------------------------------------|
|--------------------------------------------|
|--------------------------------------------|
|--------------------------------------------|
|--------------------------------------------|


                                            D.S.S. al Dbl. Coda
  D5                      C5                Bb5          N.C.
  Gtr I                                                  Gtr VI
                                                         TPTPTPTP
|---------------------------------------------|-------------------||
|---------------------------------------------|-------------------||
|--7--7--7--7--7--7--7--7---------------------|-------------------||
|--7--7--7--7--7--7--7--7-10-10-10----10----8-|-(8)------xSxSxSx\-||
|--5--5--5--5--5--5--5--5-10-10-10----10----8-|-(8)------xSxSxSx\-||
|--0--0--0--0--0--0--0--0-10-10-10----10----8-|-(8)------xSxSxSx\-||
|
| Gtr II
|---------------------------------------------|-------------------||
|---------------------------------------------|-------------------||
|-14-14-14-12-12-12-10-10--9--9--9-10-10-10-7-|-(7)---------------||
|--x--x--x--x--x--x--x--x--x--x--x--x--x--x-x-|-------------------||
|-12-12-12-10-10-10--8--8--7--7--7--8--8--8-5-|-(5)---------------||
|---------------------------------------------|-------------------||


   Outro
    &&
    F5
    Gtr I
||-----------------------------------------------|
||o----------------------------------------------|
||-----------------------------------------------|
||--3--3--3-3--3--3--3-3---3---3--3-3--3--3--3-3-|
||o-3--3--3-3--3--3--3-3---3---3--3-3--3--3--3-3-|
||--3--3--3-3--3--3--3-3---3---3--3-3--3--3--3-3-|
|
|   Gtr II
||-----------------------------------------------|
||o----------------------------------------------|
||-------10-9-(9)---10---(10)----10-9-(9)---10---|
||----10----------------------10-----------------|
||o-8--------------------------------------------|
||-----------------------------------------------|
|
|   Gtr V
||-----------------------------------------------|
||o------10-8-(8)---10---(10)----10-8-(8)---10---|
||-----------------------------------------------|
||----10----------------------10-----------------|
||o-8--------------------------------------------|
||-----------------------------------------------|


  D5
|------------------------------------------------|
|------------------------------------------------|
|------------------------------------------------|
|--0--0--0-0--0--0--0-0---0---0--0-0--0--0--0-0--|
|--0--0--0-0--0--0--0-0---0---0--0-0--0--0--0-0--|
|--0--0--0-0--0--0--0-0---0---0--0-0--0--0--0-0--|
|
|------------------------------------------------|
|------------------------------------------------|
|-------10-9-(9)---10---(10)----10-9-(9)---10----|
|------------------------------------------------|
|----12----------------------12------------------|
|-12---------------------------------------------|
|
|------------------------------------------------|
|-------10-8-(8)---10---(10)----10-8-(8)---10----|
|------------------------------------------------|
|------------------------------------------------|
|----12----------------------12------------------|
|-12---------------------------------------------|


  Bb5
|--------------------------------------------|
|--------------------------------------------|
|--------------------------------------------|
|-8-8--8-8--8--8--8-8---8--8--8-8--8--8--8-8-|
|-8-8--8-8--8--8--8-8---8--8--8-8--8--8--8-8-|
|-8-8--8-8--8--8--8-8---8--8--8-8--8--8--8-8-|
|
|--------------------------------------------|
|--------------------------------------------|
|-----10-9-(9)---10---(10)---10-9-(9)---10---|
|--------------------------------------------|
|---8----------------------8-----------------|
|-8------------------------------------------|
|
|--------------------------------------------|
|-----10-8-(8)---10---(10)---10-8-(8)---10---|
|--------------------------------------------|
|--------------------------------------------|
|---8----------------------8-----------------|
|-8------------------------------------------|


  A5                  C5
|-----------------------------------------------||
|----------------------------------------------o||
|-----------------------------------------------||
|-7-7--7-7--7--7--7-7-10-10-10-10-10--10-10-10--||
|-7-7--7-7--7--7--7-7-10-10-10-10-10--10-10-10-o||
|-7-7--7-7--7--7--7-7-10-10-10-10-10--10-10-10--||
|
|-----------------------------------------------||
|----------------------------------------------o||
|-----10-9-(9)---10---12-10--9--9-(9)-10--------||
|----------------------------------------10-----||
|---7------------------------------------------o||
|-7---------------------------------------------||
|
|-----------------------------------------------||
|-----10-8-(8)---10---11-10--8--8-(8)-10-------o||
|-----------------------------------------9-----||
|-----------------------------------------------||
|---7------------------------------------------o||
|-7---------------------------------------------||


  F5
|-----------|---------*|
|-----------|---------*|
|-----------|---------*|
|--3--------|--(3)----*|
|--3--------|--(3)----*|
|--3--------|--(3)----*|
|
|-----------|---------*|
|-----------|---------*|
|-10--------|-(10)----*|
|-----------|---------*|
|-----------|---------*|
|-----------|---------*|
|
|-----------|---------*|
|-13--------|-(13)----*|
|-----------|---------*|
|-----------|---------*|
|-----------|---------*|
|-----------|---------*|

8. AN INTERLUDE

Gtr I (C G C F A D)
Gtr II (C G C F A D)

 Intro
  Gtr I
|-------------------------7-------|-------------------------7-------|
|---------7-------------7---7-----|---------7-------------7---7-----|
|-----9-----9---9-----9-------9---|-----9-----9---9-----9-------9---|
|---7---7-----7-----7-----------7-|---7---7-----7-----7-----------7-|
|-9---------------9---------------|-9---------------9---------------|
|---------------------------------|---------------------------------|


    F#m11
    Gtr I
||---------------------------------7--------|
||o------------7----------------7----7------|
||--------9------9----9-------9---------9---|
||-----7----7-------7------7--------------7-|
||o--9-------------------9------------------|
||------------------------------------------|
|
|   Gtr II
||------------------------------------------|
||o-----------10------------------10--------|
||-----9----9----9----9----9----9----9----9-|
||--11---11--------11---11---11--------11---|
||o-----------------------------------------|
||------------------------------------------|


|--------------------------------------7----------|
|--------------7--------------------7-----7-------|
|--------9--------9-----9--------9-----------9----|
|-----7-----7--------7--------7-----------------7-|
|--9-----------------------9----------------------|
|-------------------------------------------------|
|
|-------------------------------------------------|
|-------------10----------------------10----------|
|----11----11----11----11----11----11----11----11-|
|-11----11----------11----11----11----------11----|
|-------------------------------------------------|
|-------------------------------------------------|


  F#m11
|--------------------------------7--------|
|------------7----------------7----7------|
|-------9------9----9-------9---------9---|
|----7----7-------7------7--------------7-|
|--9-------------------9------------------|
|-----------------------------------------|
|
|-----------------------------------------|
|-----------10------------------10--------|
|----9----9----9----9----9----9----9----9-|
|-11---11--------11---11---11--------11---|
|-----------------------------------------|
|-----------------------------------------|


                                            3x
|--------------------------------7----------||
|------------7----------------7----7-------o||
|-------9------9----9-------9---------9-----||
|----7----7-------7------7--------------7---||
|--9-------------------9-------------------o||
|-------------------------------------------||
|
|                                           3x
|-------------------------------------------||
|-----------12------------------12---------o||
|----9----9----9----9----9----9----9----9---||
|-11---11--------11---11---11--------11-----||
|------------------------------------------o||
|-------------------------------------------||


   Main Theme
    N.C.
                                                                        4x
||---------------------------|------------------------------------------||
||o--------------------------|-----------------------------------------o||
||-----------9------7-(7)----|--------9-----7-(7)-6-(6)-6-6h=7p6--------||
||-----7-------7-------------|----7-----7-------------------------7-----||
||o--9----9-------9----------|-9----9-----9--------------------------7-o||
||---------------------------|------------------------------------------||
|
|                                                                       4x
||---------------------------|------------------------------------------||
||o---------10------7-(7)----|---10---9-----7-(7)----------------------o||
||-----9-------9-------------|--------------------9-----9-9h11p9--------||
||--11---11------11----------|-----------------------------------11-----||
||o--------------------------|--------------------------------------12-o||
||---------------------------|------------------------------------------||


   Bridge
    Bsus4
         \0.5
||--^7--(7)---(7)-(7)--(7)-7-(7)---|-------||
||o-^7--(7)---(7)-(7)--(7)-------7-|------o||
||--^9--(9)---(9)-(9)--(9)---------|-9-----||
||--^9--(9)---(9)-(9)--(9)---------|-------||
||o--------------------------------|------o||
||---------------------------------|-------||
|
|        \0.5
||--^7--(7)---(7)-(7)--(7)-7-(7)---|-------||
||o-^7--(7)---(7)-(7)--(7)-------7-|------o||
||--^9--(9)---(9)-(9)--(9)---------|-9-----||
||--^9--(9)---(9)-(9)--(9)---------|-------||
||o--------------------------------|------o||
||---------------------------------|-------||


   Main Theme
    N.C.
                                                                        4x
||---------------------------|------------------------------------------||
||o--------------------------|-----------------------------------------o||
||-----------9------7-(7)----|--------9-----7-(7)-6-(6)-6-6h=7p6--------||
||-----7-------7-------------|----7-----7-------------------------7-----||
||o--9----9-------9----------|-9----9-----9--------------------------7-o||
||---------------------------|------------------------------------------||
|
|                                                                       4x
||---------------------------|------------------------------------------||
||o---------10------7-(7)----|---10---9-----7-(7)----------------------o||
||-----9-------9-------------|--------------------9-----9-9h11p9--------||
||--11---11------11----------|-----------------------------------11-----||
||o--------------------------|--------------------------------------12-o||
||---------------------------|------------------------------------------||


   Outro
    N.C.
||---------------------------|------------------------------------------||
||o--------------------------|-----------------------------------------o||
||-----------9------7-(7)----|--------9-----7-(7)-6-(6)-6-6h=7p6--------||
||-----7-------7-------------|----7-----7-------------------------7-----||
||o--9----9-------9----------|-9----9-----9--------------------------7-o||
||---------------------------|------------------------------------------||
|
||---------------------------|------------------------------------------||
||o---------10------7-(7)----|---10---9-----7-(7)----------------------o||
||-----9-------9-------------|--------------------9-----9-9h11p9--------||
||--11---11------11----------|-----------------------------------11-----||
||o--------------------------|--------------------------------------12-o||
||---------------------------|------------------------------------------||


  N.C.
|--------------------------|-----*|
|--------------------------|-----*|
|----------9------7-(7)----|-----*|
|----7-------7-------------|-----*|
|--9----9-------9----------|-----*|
|--------------------------|-----*|
|
|--------------------------|-----*|
|---------10------7-(7)----|-----*|
|----9-------9-------------|-----*|
|-11---11------11----------|-----*|
|--------------------------|-----*|
|--------------------------|-----*|


9. CORSETING

Gtr I (C G C F A D) 
Gtr II (C G C F A D)
Gtr III (C G C F A D)

 Intro                 Verse
  Gtrs I, II
                                                          PM--------|
|-------------------||------------------------|------------------------|
|-------------------||o-----------------------|------------------------|
|-------------------||------------------------|------------------------|
|----------2--3--5--||------------------------|------------------------|
|-0--3--5--0--1--3--||o-------0h3h5-----------|-0h3h5-----0-0-0-0-0-0--|
|-0--3--5-----------||--0h3h5-------0---0h3h5-|-------0---0-0-0-0-0-0--|


  N.C.                              D5
                                    PM--------|
|-----------------------|-----------------------|
|-----------------------|-----------------------|
|-----------------------|-----------------------|
|-----------------------|-----------------------|
|-------0h3h5-----------|-0h3h5-----0-0-0-0-0-0-|
|-0h3h5-------0---0h3h5-|-------0---0-0-0-0-0-0-|


  Eb5
  Gtr I
|-----------------------------|------------------------------|
|-----------------------------|------------------------------|
|-----------------------------|------------------------------|
|--1-----1-1-1--1----1--1--1--|--1--1---1---1----1---1-1--1--|
|--1-----1-1-1--1----1--1--1--|--1--1---1---1----1---1-1--1--|
|--1-----1-1-1--1----1--1--1--|--1--1---1---1----1---1-1--1--|
|
| Gtr II
|-----------------------------|------------------------------|
|-----------------------------|------------------------------|
|-17b19------------(17)p==15--|-14----(14)\----/14--15---17--|
|-----------------------------|------------------------------|
|-----------------------------|------------------------------|
|-----------------------------|------------------------------|


  Bbsus2
|----------------------------------|-------------------------------------|
|----------------------------------|-------------------------------------|
|----------------------------------|-------------------------------------|
|-10--10-10-10----10--10--10---10--|--10--10-10-10----10--10--10---10----|
|--8---8--8--8-----8---8---8----8--|---8---8--8--8-----8---8---8----8----|
|--8---8--8--8-----8---8---8----8--|---8---8--8--8-----8---8---8----8----|
|
|----------------------------------|-------------------------------------|
|----------------------------------|-------------------------------------|
|-17--------15p14-15-----(15)\-----|-/14---------------------------------|
|----------------------------------|------------17p15-17-----(17)\-------|
|----------------------------------|-------------------------------------|
|----------------------------------|-------------------------------------|


  N.C.                              D5
  Gtrs I, II
                                    PM--------|
|-----------------------|-----------------------|
|-----------------------|-----------------------|
|-----------------------|-----------------------|
|-----------------------|-----------------------|
|-------0h3h5-----------|-0h3h5-----0-0-0-0-0-0-|
|-0h3h5-------0---0h3h5-|-------0---0-0-0-0-0-0-|


  N.C.                              D5
                                    PM----|
|-----------------------|----------------------|
|-----------------------|----------------------|
|-----------------------|----------------------|
|-----------------------|----------------------|
|-------0h3h5-----------|-0h3h5-----0--0--0----|
|-0h3h5-------0---0h3h5-|-------0---0--0--0----|


  1.
  Eb5
  Gtr I
|------------------------------|----------------------------------------------|
|------------------------------|----------------------------------------------|
|------------------------------|----------------------------------------------|
|--1-----1--1--1-----1--1-1-1--|--1--------1--1---1-----------1-------1--1-1--|
|--1-----1--1--1-----1--1-1-1--|--1--------1--1---1-----------1-------1--1-1--|
|--1-----1--1--1-----1--1-1-1--|--1--------1--1---1-----------1-------1--1-1--|
|
| Gtr II
|                    ~~                                               ~~~~
|-------15-18-15---------------|----------------------------------------------|
|----15----------15------------|-18b20===(18)---(18)r(18)p16-18b20--(18)------|
|-15----------------15---------|----------------------------------------------|
|------------------------------|----------------------------------------------|
|------------------------------|----------------------------------------------|
|------------------------------|----------------------------------------------|


  Bbsus2
|-----------------------------|----------------------------------------------||
|-----------------------------|----------------------------------------------||
|-----------------------------|----------------------------------------------||
|-10--10-10-10--10--10-10-10--|-10------10-10--10----------10-----10-10-10---||
|--8---8--8--8---8---8--8--8--|--8-------8--8---8-----------8------8--8--8---||
|--8---8--8--8---8---8--8--8--|--8-------8--8---8-----------8------8--8--8---||
|
|                                                           ~~~~~
|-----------------------------|----------------------------------------------||
|-15--16----18--16--15--------|----------------------------------------------||
|-------------------------17--|-17b19=========(17)r(17)p15-17b19-------------||
|-----------------------------|----------------------------------------------||
|-----------------------------|----------------------------------------------||
|-----------------------------|----------------------------------------------||


 Pre-Chorus
  D5    Bb5D5              Bb5D5    N.C.
  Gtrs I, II
  PM--|            PM--|
|------------------------|------------------|
|------------------------|------------------|
|------------------------|------------------|
|-------8--0-(0)---------|-8--0-(0)---------|
|-0-0-0-8--0-(0)---0-0-0-|-8--0-(0)---------|
|-0-0-0-8--0-(0)---0-0-0-|-8--0-(0)---------|


  D5    Bb5D5              Bb5D5    N.C.
  PM--|            PM--|
|------------------------|--------------|
|------------------------|--------------|
|------------------------|--------------|
|-------8--0-(0)---------|-8--0-(0)-----|
|-0-0-0-8--0-(0)---0-0-0-|-8--0-(0)-----|
|-0-0-0-8--0-(0)---0-0-0-|-8--0-(0)-----|


  G5    Bb5G5              Bb5G5    N.C.
  PM--|            PM--|
|------------------------|------------------|
|------------------------|------------------|
|------------------------|------------------|
|-------8--5-(5)---------|-8--5-(5)---------|
|-5-5-5-8--5-(5)---5-5-5-|-8--5-(5)---------|
|-5-5-5-8--5-(5)---5-5-5-|-8--5-(5)---------|


  Bb5   Bbsus2        Bb5     Bbsus2
  PM--|               PM--|
|---------------------------|-----------------|
|---------------------------|-----------------|
|---------------------------|-----------------|
|-------10--10-(10)---------|-10--10-(10)-----|
|-8-8-8--8---8--(8)---8-8-8-|--8---8--(8)-----|
|-8-8-8--8---8--(8)---8-8-8-|--8---8--(8)-----|


  D5    Bb5   D5                    Bb5 D5    N.C.
  Gtr I
  PM--|                   PM---|
|---------------------------------|---------------------------------|
|---------------------------------|---------------------------------|
|---------------------------------|---------------------------------|
|--------8----0-(0)---------------|-8---0-(0)-----------------------|
|-0-0-0--8----0-(0)-------0--0--0-|-8---0-(0)-----------------------|
|-0-0-0--8----0-(0)-------0--0--0-|-8---0-(0)-----------------------|
|
| Gtr II
|---------------------------------|---------------------------------|
|---------------------------------|---------------------------------|
|---------------------------------|---------------------------------|
|---------------------------------|---------------------------------|
|---------------------------------|---------------------------------|
|-0-0-0-15-14-0-17--15-0-14-15-17-|-0-0-0-14--15-0-17-15-0-14-15-17-|


  D5    Bb5   D5         D5         Bb5 D5    N.C.
  PM--|                   PM---|
|---------------------------------|-------------------------------------|
|---------------------------------|-------------------------------------|
|---------------------------------|-------------------------------------|
|--------8----0-(0)---------------|-8---0-(0)---------------------------|
|-0-0-0--8----0-(0)-------0--0--0-|-8---0-(0)---------------------------|
|-0-0-0--8----0-(0)-------0--0--0-|-8---0-(0)---------------------------|
|
|---------------------------------|-------------------------------------|
|---------------------------------|-------------------------------------|
|---------------------------------|-------------------------------------|
|---------------------------------|-------------------------------------|
|---------------------------------|-------------------------------------|
|-0-0-0-15-14-0-17--15-0-14-15-17-|-0-0-0-14--15-0-17-15-14-15-14-12----|


  G5    Bb5   G5                    Bb5 G5
  PM--|                   PM---|
|---------------------------------|---------------------------------|
|---------------------------------|---------------------------------|
|---------------------------------|---------------------------------|
|--------8----5-(5)---------------|-8---5-(5)-----------------------|
|-5-5-5--8----5-(5)-------5--5--5-|-8---5-(5)-----------------------|
|-5-5-5--8----5-(5)-------5--5--5-|-8---5-(5)-----------------------|
|
|---------------------------------|---------------------------------|
|---------------------------------|---------------------------------|
|---------------------------------|---------------------------------|
|---------------------------------|---------------------------------|
|---------------------------------|---------------------------------|
|-0-0-0-15-14-0-17--15-0-14-15-17-|-0-0-0-14--15-0-17-15-0-14-15-17-|


  Bb5   Bbsus2             Bb5        Bbsus2       N.C.
  PM--|                     PM---|
|-----------------------------------|----------------------------------------||
|-----------------------------------|----------------------------------------||
|-----------------------------------|----------------------------------------||
|-------10----10-(10)---------------|-10---10-(10)---------------------------||
|-8-8-8--8-----8--(8)-------8--8--8-|--8----8--(8)---------------------------||
|-8-8-8--8-----8--(8)-------8--8--8-|--8----8--(8)---------------------------||
|
|-----------------------------------|----------------------------------------||
|-----------------------------------|----------------------------------------||
|-----------------------------------|----------------------------------------||
|-----------------------------------|----------------------------------------||
|-----------------------------------|----------------------------------------||
|-0-0-0-15-14--0--17--15-0-14-15-17-|--0-0--0--14--15-0-17-15-14-15-14-12----||


 Chorus
  $
  G5                                  F5 G5
|---------------------|---------------------|
|---------------------|---------------------|
|---------------------|---------------------|
|-5--5-5-5--5--5-5-5--|-5--5-5-5-5-5--3--5--|
|-5--5-5-5--5--5-5-5--|-5--5-5-5-5-5--3--5--|
|-5--5-5-5--5--5-5-5--|-5--5-5-5-5-5--3--5--|
|
|---------------------|---------------------|
|---------------------|---------------------|
|---------------------|---------------------|
|-5--5-5-5--5--5-5-5--|-5--5-5-5-5-5--3--5--|
|-5--5-5-5--5--5-5-5--|-5--5-5-5-5-5--3--5--|
|-5--5-5-5--5--5-5-5--|-5--5-5-5-5-5--3--5--|


  Bb5
|----------------------|------------------------|
|----------------------|------------------------|
|----------------------|------------------------|
|-8--8-8-8---8--8-8-8--|--8--8-8-8-8-8--8--8----|
|-8--8-8-8---8--8-8-8--|--8--8-8-8-8-8--8--8----|
|-8--8-8-8---8--8-8-8--|--8--8-8-8-8-8--8--8----|
|
|----------------------|------------------------|
|----------------------|------------------------|
|-----------14---------|-12----------5----------|
|-8----------x---------|--x----------x----------|
|-8---------12---------|-10----------3----------|
|-8--------------------|------------------------|


  G5                                     F5     G5
|------------------------|-------------------------|
|------------------------|-------------------------|
|------------------------|-------------------------|
|-5--5-5-5--5---5---5-5--|-5--5-5-5-5-5---3-----5--|
|-5--5-5-5--5---5---5-5--|-5--5-5-5-5-5---3-----5--|
|-5--5-5-5--5---5---5-5--|-5--5-5-5-5-5---3-----5--|
|
|------------------------|-------------------------|
|------------------------|-------------------------|
|-7------------(7)-10----|-9-------------(9)-10----|
|-x-----------------x----|-x------------------x----|
|-5------------(5)--8----|-7-------------(7)--8----|
|------------------------|-------------------------|


                                         To Coda
  Bb5
|-------------------------|---------------------------||
|-------------------------|--------------------------o||
|-------------------------|---------------------------||
|--8--8--8-8-8-8--8-8-8-8-|-8--8-8-8-8-8--8-8-8-8-----||
|--8--8--8-8-8-8--8-8-8-8-|-8--8-8-8-8-8--8-8-8-8----o||
|--8--8--8-8-8-8--8-8-8-8-|-8--8-8-8-8-8--8-8-8-8-----||
|
|-------------------------|---------------------------||
|-------------------------|--------------------------o||
|-12----10-----9----------|-9----------9--------------||
|--x-----x-----x----------|-x----------x--------------||
|-10-----8-----7----------|-7----------7-------------o||
|-------------------------|---------------------------||


  2.
  Eb5
|------------------------------|------------------------------|
|------------------------------|------------------------------|
|------------------------------|------------------------------|
|--1-----1--1--1-----1--1-1-1--|--1-------1--1--1---1--1-1-1--|
|--1-----1--1--1-----1--1-1-1--|--1-------1--1--1---1--1-1-1--|
|--1-----1--1--1-----1--1-1-1--|--1-------1--1--1---1--1-1-1--|
|
|                    ~~
|-------15-18-15---------------|---------------18-------------|
|----15----------15------------|-18b20--(18)-------18---------|
|-15----------------15---------|------------------------------|
|------------------------------|------------------------------|
|------------------------------|------------------------------|
|------------------------------|------------------------------|


  Bbsus2
|------------------------------|-----------------------------------------------||
|------------------------------|-----------------------------------------------||
|------------------------------|-----------------------------------------------||
|--10--10-10-10--10--10-10-10--|-10------10-10--10----------10-----10-10-10----||
|---8---8--8--8---8---8--8--8--|--8-------8--8---8-----------8------8--8--8----||
|---8---8--8--8---8---8--8--8--|--8-------8--8---8-----------8------8--8--8----||
|
|                                                            ~~~~~
|------------------------------|-----------------------------------------------||
|-/15--16----18--16--15--------|-----------------------------------------------||
|--------------------------17--|-17b19=========(17)r(17)p15-17b19--------------||
|------------------------------|-----------------------------------------------||
|------------------------------|-----------------------------------------------||
|------------------------------|-----------------------------------------------||


 Pre-Chorus
  D5    Bb5D5              Bb5D5    N.C.
  Gtrs I, II
  PM--|            PM--|
|------------------------|------------------|
|------------------------|------------------|
|------------------------|------------------|
|-------8--0-(0)---------|-8--0-(0)---------|
|-0-0-0-8--0-(0)---0-0-0-|-8--0-(0)---------|
|-0-0-0-8--0-(0)---0-0-0-|-8--0-(0)---------|


  D5    Bb5D5              Bb5D5    N.C.
  PM--|            PM--|
|------------------------|--------------|
|------------------------|--------------|
|------------------------|--------------|
|-------8--0-(0)---------|-8--0-(0)-----|
|-0-0-0-8--0-(0)---0-0-0-|-8--0-(0)-----|
|-0-0-0-8--0-(0)---0-0-0-|-8--0-(0)-----|


  G5    Bb5G5              Bb5G5    N.C.
  PM--|            PM--|
|------------------------|------------------|
|------------------------|------------------|
|------------------------|------------------|
|-------8--5-(5)---------|-8--5-(5)---------|
|-5-5-5-8--5-(5)---5-5-5-|-8--5-(5)---------|
|-5-5-5-8--5-(5)---5-5-5-|-8--5-(5)---------|


  Bb5   Bbsus2        Bb5     Bbsus2      N.C.
  PM--|               PM--|
|---------------------------|-----------------|
|---------------------------|-----------------|
|---------------------------|-----------------|
|-------10--10-(10)---------|-10--10-(10)-----|
|-8-8-8--8---8--(8)---8-8-8-|--8---8--(8)-----|
|-8-8-8--8---8--(8)---8-8-8-|--8---8--(8)-----|


  N.C.
  Gtr I
|--------------------------------|--------------------------------|
|--------------------------------|--------------------------------|
|--------------------------------|--------------------------------|
|--------------------------------|--------------------------------|
|--------8-10---13-12---12-13-15-|--------8-10---13-12---12-13-15-|
|-0-0-0-------0-------0----------|-0-0-0-------0-------0----------|
|
| Gtr II
|--------------------------------|--------------------------------|
|--------------------------------|--------------------------------|
|--------------------------------|--------------------------------|
|--------------------------------|--------------------------------|
|--------------------------------|--------------------------------|
|-0-0-0-15-14-0-17-15-0-14-15-17-|-0-0-0-14-15-0-17-15-0-14-15-17-|


|--------------------------------|------------------------------------|
|--------------------------------|------------------------------------|
|--------------------------------|------------------------------------|
|--------------------------------|------------------------------------|
|--------8-10---13-12---12-13-15-|--------8-10---13-12-10-12-10--8----|
|-0-0-0-------0-------0----------|-0-0-0-------0----------------------|
|
|--------------------------------|------------------------------------|
|--------------------------------|------------------------------------|
|--------------------------------|------------------------------------|
|--------------------------------|------------------------------------|
|--------------------------------|------------------------------------|
|-0-0-0-15-14-0-17-15-0-14-15-17-|-0-0-0-14-15-0-17-15-14-15-14-12----|


  N.C.
|--------------------------------|--------------------------------|
|--------------------------------|--------------------------------|
|--------------------------------|--------------------------------|
|--------------------------------|--------------------------------|
|--------8-10---13-12---12-13-15-|--------8-10---13-12---12-13-15-|
|-0-0-0-------0-------0----------|-0-0-0-------0-------0----------|
|
|--------------------------------|--------------------------------|
|--------------------------------|--------------------------------|
|--------------------------------|--------------------------------|
|--------------------------------|--------------------------------|
|--------------------------------|--------------------------------|
|-0-0-0-15-14-0-17-15-0-14-15-17-|-0-0-0-14-15-0-17-15-0-14-15-17-|


                                                    D.S. al Coda
|--------------------------------|------------------------------------||
|--------------------------------|------------------------------------||
|--------------------------------|------------------------------------||
|--------------------------------|------------------------------------||
|--------8-10---13-12---12-13-15-|--------8-10---13-12-10-12-10--8----||
|-0-0-0-------0-------0----------|-0-0-0-------0----------------------||
|
|--------------------------------|------------------------------------||
|--------------------------------|------------------------------------||
|--------------------------------|------------------------------------||
|--------------------------------|------------------------------------||
|--------------------------------|------------------------------------||
|-0-0-0-15-14-0-17-15-0-14-15-17-|-0-0-0-14-15-0-17-15-14-15-14-12----||


   Breakdown
    &
    D5
    Gtrs I, II
    PM----|   PM----|     PM----|   PM----|
                                               4x
||----------------------|----------------------||
||o---------------------|---------------------o||
||----------------------|----------------------||
||----------------------|----------------------||
||o-0-0-0-0---0-0-0-0---|-0-0-0-0---0-0-0-0---o||
||--0-0-0-0---0-0-0-0---|-0-0-0-0---0-0-0-0----||


 Outro
  D5
  Gtrs I, II
   PM--------|   PM-------|        PM-------|          PM--------|
|-------------------------------|-----------------------------------------|
|-------------------------------|-----------------------------------------|
|-------------------------------|-----------------------------------------|
|-------------------------------|-----------------------------------------|
|--0-----0-0-0---0-0---0--0-----|--0-0----0---0--------0--0----0---0------|
|--0-----0-0-0---0-0---0--0-----|--0-0----0---0--------0--0----0---0------|
|
| Gtr III
|-------------------------------|-----------------------------------------|
|-18-----------------(18)----18-|-18---------18-------18----------18------|
|-17b19==============(17)-------|------17---(17)--17-(17)---17---(17)--17-|
|-------------------------------|-----------------------------------------|
|-------------------------------|-----------------------------------------|
|-------------------------------|-----------------------------------------|


  D5
    PM--------|          PM--------|
|-------------------------------------------|
|-------------------------------------------|
|-------------------------------------------|
|-------------------------------------------|
|---0--0----0---0--------0--0----0---0------|
|---0--0----0---0--------0--0----0---0------|
|
|-------------------------------------------|
|--18----------18-------18----------18------|
|-(17)---17r==(17)--17-(17)---17---(17)--17-|
|-------------------------------------------|
|-------------------------------------------|
|-------------------------------------------|


    PM--------|          PM--------|
|---------------------------------------------|
|---------------------------------------------|
|---------------------------------------------|
|---------------------------------------------|
|---0--0----0---0--------0--0----0---0--------|
|---0--0----0---0--------0--0----0---0--------|
|
|---------------------------------------------|
|--18----------18-------18----------18--------|
|-(17)---17r==(17)--17-(17)---17---(17)--17r--|
|---------------------------------------------|
|---------------------------------------------|
|---------------------------------------------|


  D5
   PM--------|   PM--------|          PM-------|   PM----|
|----------------------------------|-------------------------|
|----------------------------------|-------------------------|
|----------------------------------|-------------------------|
|----------------------------------|-------------------------|
|--0-----0-0-0---0-0---0---0-------|--0----0-0-0---0-0-0-0---|
|--0-----0-0-0---0-0---0---0-------|--0----0-0-0---0-0-0-0---|
|
|                                     ~~~~~
|----------------------------------|-------------------------|
|----------------------------------|-------------------------|
|-17b19==============(17)r---17-15-|-17b19-------------------|
|----------------------------------|-------------------------|
|----------------------------------|-------------------------|
|----------------------------------|-------------------------|


  D5             N.C.                D5      N.C.
   PM------|                         PM----|
|----------------------------------|---------------*|
|----------------------------------|---------------*|
|----------------------------------|---------------*|
|------------0---------------------|---------------*|
|--0-----0-0-0------------0h==3h=5-|-0-0-0-0-------*|
|--0-----0-0-0-----0h=3h5----------|-0-0-0-0-------*|
|
|----------------------------------|---------------*|
|-18-------------(18)-------(18)---|---------------*|
|-17b19==========(17)r======(17)---|---------------*|
|----------------------------------|---------------*|
|----------------------------------|---------------*|
|----------------------------------|---------------*|


10. Demonology and Heartache - Still Working On This One, Keep Checking Back For Updates


11. MY SANITY ON THE FUNERAL PYRE

Gtr I (C G C F A D)
Gtr II (C G C F A D) 
Gtr III (C G C F A D)

 Intro
  Gtr I
            PM|   PM|   PM----------|
|---------|---------------------------------|
|---------|---------------------------------|
|---------|---------------------------------|
|---------|---------------------------------|
|---------|-0-0-3-0-0-3-0-0-0-0-1-0-0-1h=3--|
|---------|-0-0-1-0-0-3-0-0-0-0-1-0-0-1-(1)-|


  D5  EbD5  F5D5      EbD5  EbEb5
  PM|   PM|   PM----------|
|-----------------------------------|
|-----------------------------------|
|-----------------------------------|
|-----------------------------------|
|-0-0-3-0-0-3-0-0-0-0-1-0-0-3p=1----|
|-0-0-1-0-0-3-0-0-0-0-1-0-0-1-(1)---|


  D5  EbD5  F5D5      EbD5  EbEb6   D5  EbD5  F5D5     EbD5Eb5
                                                               2/4
  Gtr I
                                                                 \7
  PM|   PM|   PM----------|         PM|   PM|   PM-------|
|---------------------------------|---------------------------|--------||
|---------------------------------|---------------------------|--------||
|---------------------------------|---------------------------|--------||
|---------------------------------|------------------------1--|-(1)----||
|-0-0-3-0-0-3-0-0-0-0-1-0-0-1h=3--|-0-0-3-0-0-3-0--0-0-1-0-1--|-(1)----||
|-0-0-1-0-0-3-0-0-0-0-1-0-0-1-(1)-|-0-0-1-0-0-3-0--0-0-1-0-1--|-(1)----||
|
| Gtr III                                                  Gtr II
|                                                                \7
| TP    TP    TP        TP          TP    TP    TP
|---------------------------------|---------------------------|--------||
|---------------------------------|---------------------------|--------||
|---------------------------------|---------------------------|--------||
|-xS====xS====xS========xS========|=xS====xS====x\---------1--|-(1)----||
|-xS====xS====xS========xS========|=xS====xS====x\---------1--|-(1)----||
|-xS====xS====xS========xS========|=xS====xS====x\---------1--|-(1)----||


   Verse
                                   1.,2.,3.
    D5  EbD5  F5D5      EbD5  EbF5  D5  EbD5  F5D5      EbD5  F5Eb5
   4/4
    Gtrs I, II
    PM|   PM|   PM----------|       PM|   PM|   PM----------|
                                                                   4x
||--------------------------------|--------------------------------||
||o-------------------------------|-------------------------------o||
||--------------------------------|--------------------------------||
||------1-----3---------------1h3-|-----1-----3---------------3p1--||
||o-0-0-3-0-0-3-0-0-0-0-1-0-0-1h3-|-0-0-3-0-0-3-0-0-0-0-1-0-0-3p1-o||
||--0-0-1-0-0-3-0-0-0-0-1-0-0-1h3-|-0-0-1-0-0-3-0-0-0-0-1-0-0-3p1--||


  4.
  D5  EbD5  F5D5      EbD5  F5D5        N.C.
  PM|   PM|   PM----------|
|-------------------------------|----------------||
|-------------------------------|----------------||
|-------------------------------|-------7-(7)----||
|-----1-----3---------------3-0-|-(0)---x--------||
|-0-0-3-0-0-3-0-0-0-0-1-0-0-3-0-|-(0)---5-(5)----||
|-0-0-1-0-0-3-0-0-0-0-1-0-0-3-0-|-(0)---0-(0)----||


   Pre-Chorus
    $
    D5           N.C.      D5                N.C.
    PM------|              PM----|   PM--|
||-----------------------|---------------------------|
||o----------------------|---------------------------|
||---------------7-7h8-7-|---------------------------|
||-----------------------|---------0-----------------|
||o-0-0-0-0-0------------|-0-0-0-0-0-0-0-0---5-5h6-5-|
||--0-0-0-0-0------------|-0-0-0-0-0-0-0-0-----------|


  D5           N.C.      D5                N.C.
  Gtr I
  PM------|              PM----|   PM--|
|----------------------|----------------------------||
|----------------------|---------------------------o||
|--------------7-7h8-7-|----------------------------||
|----------------------|---------0------------------||
|-0-0-0-0-0------------|-0-0-0-0-0-0-0-0---5-5h6-5-o||
|-0-0-0-0-0------------|-0-0-0-0-0-0-0-0------------||
|
| Gtr II
| PM------|              PM----|   PM--|
|----------------------|----------------------------||
|--------------7-7h8-7-|---------------------------o||
|----------------------|----------------------------||
|----------------------|---------0------------------||
|-0-0-0-0-0------------|-0-0-0-0-0-0-0-0---5-5h6-5-o||
|-0-0-0-0-0------------|-0-0-0-0-0-0-0-0------------||


 Pre-Chorus
  Double-Time Q=180
  D            Eb      Eb5
  Gtrs I, II
                       PM----------------|
|----------------|-------------------------|
|----------------|-------------------------|
|----------------|-------------------------|
|-4-5-4-4-4-4--5-|-(5)---------------------|
|-0-0-0-0-0-0--1-|-(1)-1-1-1-1-1-1-1-1-1-1-|
|-0-0-0-0-0-0--1-|-(1)-1-1-1-1-1-1-1-1-1-1-|


  D            N.C.
|----------------|-------------------------|
|----------------|-------------------------|
|--------------8-|-(8)-8--10-(10)-10-10-10-|
|-4-5-4-4-4-4--x-|-----x---x-------x--x--x-|
|-0-0-0-0-0-0--6-|-(6)-6---8--(8)--8--8--8-|
|-0-0-0-0-0-0----|-------------------------|


  D            Eb      Eb5
                       PM----------------|
|----------------|-------------------------|
|----------------|-------------------------|
|----------------|-------------------------|
|-4-5-4-4-4-4--5-|-(5)---------------------|
|-0-0-0-0-0-0--1-|-(1)-1-1-1-1-1-1-1-1-1-1-|
|-0-0-0-0-0-0--1-|-(1)-1-1-1-1-1-1-1-1-1-1-|


  D            Eb5                                             C5
  Gtr I
|-----------------|-----------------------|-----------------------|
|-----------------|-----------------------|-----------------------|
|-----------------|-----------------------|-----------------------|
|-4-5-4-4-4-4---1-|--(1)--1--1---1--1--1--|--1--1--1---1--1--1-10-|
|-0-0-0-0-0-0---1-|--(1)--1--1---1--1--1--|--1--1--1---1--1--1-10-|
|-0-0-0-0-0-0---1-|--(1)--1--1---1--1--1--|--1--1--1---1--1--1-10-|
|
| Gtr II
|-----------------|-----------------------|-----------------------|
|-----------------|-----------------------|-----------------------|
|--------------10-|-(10)-10-10--10-10-10--|-10-10-10--10-10-10--7-|
|-4-5-4-4-4-4---x-|-------x--x---x--x--x--|--x--x--x---x--x--x--x-|
|-0-0-0-0-0-0---8-|--(8)--8--8---8--8--8--|--8--8--8---8--8--8--5-|
|-0-0-0-0-0-0-----|-----------------------|-----------------------|


  H=H
|-----------------------|-------------------------||
|-----------------------|-------------------------||
|-----------------------|-------------------------||
|-(10)-10-10--10-10-10--|-10-10-10-10-10-10-10-10-||
|-(10)-10-10--10-10-10--|-10-10-10-10-10-10-10-10-||
|-(10)-10-10--10-10-10--|-10-10-10-10-10-10-10-10-||
|
|-----------------------|-------------------------||
|-----------------------|-------------------------||
|--(7)--7--7---7--7--7--|--7--7--7--7--7--7--7--7-||
|-------x--x---x--x--x--|--x--x--x--x--x--x--x--x-||
|--(5)--5--5---5--5--5--|--5--5--5--5--5--5--5--5-||
|-----------------------|-------------------------||


   Chorus
    Faster Q=196
    G5
||------------------------|-------------------|
||o-----------------------|-------------------|
||------------------------|-------------------|
||---5-----5--5--(5)-5-5--|-(5)-5-5---5-5-5---|
||o--5-----5--5--(5)-5-5--|-(5)-5-5---5-5-5---|
||---5-----5--5--(5)-5-5--|-(5)-5-5---5-5-5---|
|
||------------------------|-------------------|
||o-----------------------|-------------------|
||--12s15-14-12-(12)---7--|-(7)-7-7-7-7-7-7-7-|
||---x-----x--x--------x--|-----x-x-x-x-x-x-x-|
||o-10s13-12-10-(10)---5--|-(5)-5-5-5-5-5-5-5-|
||------------------------|-------------------|


  Bb5
|------------------|-------------------|
|------------------|-------------------|
|------------------|-------------------|
|-8--8--8-(8)-8-8--|-(8)-8-8---8-8-8---|
|-8--8--8-(8)-8-8--|-(8)-8-8---8-8-8---|
|-8--8--8-(8)-8-8--|-(8)-8-8---8-8-8---|
|
|------------------|-------------------|
|------------------|-------------------|
|-3----10-------7--|-(7)-7-7-7-7-7-7-7-|
|-x-----x-------x--|-----x-x-x-x-x-x-x-|
|-1-----8-------5--|-(5)-5-5-5-5-5-5-5-|
|------------------|-------------------|


  Eb5
|------------------|-------------------|
|------------------|-------------------|
|------------------|-------------------|
|-1-1-1-1-(1)-1-1--|-(1)-1-1---1-1-1-1-|
|-1-1-1-1-(1)-1-1--|-(1)-1-1---1-1-1-1-|
|-1-1-1-1-(1)-1-1--|-(1)-1-1---1-1-1-1-|
|
|------------------|-------------------|
|------------------|-------------------|
|-3-3-3-3-(3)-3-3--|-(3)-3-3-3-3-3-3-3-|
|-x-x-x-x-----x-x--|-----x-x-x-x-x-x-x-|
|-1-1-1-1-(1)-1-1--|-(1)-1-1-1-1-1-1-1-|
|------------------|-------------------|


                               To Coda
  F5
|-------------------|---------------------||
|-------------------|--------------------o||
|-------------------|---------------------||
|-3-3-3--3-(3)-3-3--|-(3)-3-3---3-3-3-3---||
|-3-3-3--3-(3)-3-3--|-(3)-3-3---3-3-3-3--o||
|-3-3-3--3-(3)-3-3--|-(3)-3-3---3-3-3-3---||
|
|-------------------|---------------------||
|-------------------|--------------------o||
|-3-----10-------7--|-(7)-7-7-7-7-7-7-7---||
|-x------x-------x--|-----x-x-x-x-x-x-x---||
|-1------8-------5--|-(5)-5-5-5-5-5-5-5--o||
|-------------------|---------------------||


   Verse
                                       1.
    D5  Eb6D5  F5   D5      EbD5  EbF5  D5  Eb6D5  F5   D5      EbD5  F5Eb5
    Gtrs I, II
    PM|    PM|      PM----------|       PM|    PM|      PM----------|
||----------------|-------------------|---------------|--------------------||
||o---------------|-------------------|---------------|-------------------o||
||----------------|-------------------|---------------|--------------------||
||------1------3--|---------------1h3-|-----1------3--|---------------3p1--||
||o-0-0-3--0-0-3--|-0-0-0-0-1-0-0-1h3-|-0-0-3--0-0-3--|-0-0-0-0-1-0-0-3p1-o||
||--0-0-1--0-0-3--|-0-0-0-0-1-0-0-1h3-|-0-0-1--0-0-3--|-0-0-0-0-1-0-0-3p1--||


  2.
                                 D.S. al Coda
  D5  Eb6D5  F5   D5    EbD5Eb5N.C.
                                            3/4
  PM|    PM|      PM------|
|---------------|----------------|---------|-----||
|---------------|----------------|---------|-----||
|---------------|----------------|---------|-----||
|-----1------3--|-----------1----|---------|-----||
|-0-0-3--0-0-3--|-0-0-0-1-0-1----|---------|-----||
|-0-0-1--0-0-3--|-0-0-0-1-0-1----|---------|-----||


 Interlude
  &
  Eb5
 4/4
  PM--------|          PM----------------|          PM----|
|----------------|-------------|--------------|--------------|
|----------------|-------------|--------------|--------------|
|----------------|-------------|--------------|--------------|
|----------------|-------------|--------------|--------------|
|-1-1-1-1-1-1----|-----1-1-1-1-|-1-1-1-1-1----|-----1-1-1-1--|
|-1-1-1-1-1-1----|-----1-1-1-1-|-1-1-1-1-1----|-----1-1-1-1--|


  G5                                                Bb5
  PM--------|          PM----------------|
|----------------|-------------|--------------|-------------|
|----------------|-------------|--------------|-------------|
|----------------|-------------|--------------|-------------|
|----------------|-------------|--------------|-------------|
|-5-5-5-5-5-5----|-----5-5-5-5-|-5-5-5-5-5----|-----8-8-8-8-|
|-5-5-5-5-5-5----|-----5-5-5-5-|-5-5-5-5-5----|-----8-8-8-8-|


  Eb5
  Gtr I
  PM--------|                  PM----------------|                  PM------|
|-------------------|------------------|------------------|--------------------|
|-------------------|------------------|------------------|--------------------|
|-------------------|------------------|------------------|--------------------|
|-------------------|------------------|------------------|--------------------|
|-1-1-1-1-1-1-------|----------1-1-1-1-|-1-1-1-1--1-------|---------1-1-1-1-1--|
|-1-1-1-1-1-1-------|----------1-1-1-1-|-1-1-1-1--1-------|---------1-1-1-1-1--|
|
| Gtr II
|-------------------|------------------|------------------|--------------------|
|-------------------|-8s11-------------|-------8s11-------|--------------------|
|-7p==0-7p0-8p7-0h7-|------7p0-8p0-7p0-|-0h7p0------0h7p0-|-8p7-0h7-8p==7-0h8--|
|-------------------|------------------|------------------|--------------------|
|-------------------|------------------|------------------|--------------------|
|-------------------|------------------|------------------|--------------------|


  G5
  PM--------|                  PM-------
|-------------------|------------------|
|-------------------|------------------|
|-------------------|------------------|
|-------------------|------------------|
|-5-5-5-5-5-5-------|----------5-5-5-5-|
|-5-5-5-5-5-5-------|----------5-5-5-5-|
|
|-------------------|------------------|
|-------------------|-8s11-------------|
|-7p==0-7p0-8p7-0h7-|------7p0-8p0-7p0-|
|-------------------|------------------|
|-------------------|------------------|
|-------------------|------------------|


                           Bb5
 ---------|
|------------------|----------------------||
|------------------|----------------------||
|------------------|----------------------||
|------------------|----------------------||
|-5-5-5-5--5-------|--------8-8---8----8--||
|-5-5-5-5--5-------|--------8-8---8----8--||
|
|------------------|----------------------||
|-------8s11-------|----------------------||
|-0h7p0------0h7p0-|-8-7-8-10---8---10----||
|------------------|----------------------||
|------------------|----------------------||
|------------------|----------------------||


 Guitar Solo
  Eb5
|------------------|-------------------------------|
|------------------|-------------------------------|
|------------------|-------------------------------|
|--1--1-1-(1)-1-1--|--(1)-1-1--1----1----1----1----|
|--1--1-1-(1)-1-1--|--(1)-1-1--1----1----1----1----|
|--1--1-1-(1)-1-1--|--(1)-1-1--1----1----1----1----|
|
|  ~~~~~~~~~~~~~~~~~~~~~~~
|------------------|-------------------------------|
|------------------|-------------------------------|
|-12---------------|-(12)----------------8h10h==12-|
|------------------|-----------8h10h==12-----------|
|------------------|-------------------------------|
|------------------|-------------------------------|


|--------------------------------------|-------------------------|
|--------------------------------------|-------------------------|
|--------------------------------------|-------------------------|
|--1------1----1---1--(1)-1--1---------|--(1)--1---1---1-1-1-1---|
|--1------1----1---1--(1)-1--1---------|--(1)--1---1---1-1-1-1---|
|--1------1----1---1--(1)-1--1---------|--(1)--1---1---1-1-1-1---|
|
|--------------------------------------|-------------------------|
|-11b13r(11)-(11)-10-(10)---11b13r(11)-|-(11)-10-(10)------------|
|--------------------------------------|-------------------------|
|--------------------------------------|-------------------------|
|--------------------------------------|-------------------------|
|--------------------------------------|-------------------------|


  G5
|--------------------------------|-----------------------|
|--------------------------------|-----------------------|
|--------------------------------|-----------------------|
|--5-----5--5--5-(5)--5--5-------|-(5)--5--5-----5-5-5-5-|
|--5-----5--5--5-(5)--5--5-------|-(5)--5--5-----5-5-5-5-|
|--5-----5--5--5-(5)--5--5-------|-(5)--5--5-----5-5-5-5-|
|
|-13-11-10----10-----------------|-----------------------|
|----------13----13--11-10h11p10-|-----10----------------|
|--------------------------------|-12-----12-10----------|
|--------------------------------|--------------13-------|
|--------------------------------|-----------------------|
|--------------------------------|-----------------------|


                                 H.=H
                                               Bb5
|------------------------------|-----------------------------||
|------------------------------|-----------------------------||
|------------------------------|-----------------------------||
|-5----5----5----5---(5)--5-5--|-(5)---5--5------8--8---8----||
|-5----5----5----5---(5)--5-5--|-(5)---5--5------8--8---8----||
|-5----5----5----5---(5)--5-5--|-(5)---5--5------8--8---8----||
|
|------------------------------|-----------------------------||
|------------------------------|-----------------------------||
|-----------7h8h10p8--7-----7--|-----/12-12-12-[12]---(12)\--||
|-8h10h==12--------------10----|-----------------------------||
|------------------------------|-----------------------------||
|------------------------------|-----------------------------||


 Outro
  a Tempo Q=190
  Eb5
|-----------------------------|-------------|
|-----------------------------|-------------|
|-----------------------------|-------------|
|--1-----1---1---1-1--(1)---1-|--(1)--------|
|--1-----1---1---1-1--(1)---1-|--(1)--------|
|--1-----1---1---1-1--(1)---1-|--(1)--------|
|
|-----------------------------|-------------|
|-----------------------------|-------------|
|-----------------------------|-------------|
|-12b13====(12)------(12)r-12-|-(12)--------|
|-----------------------------|-------------|
|-----------------------------|-------------|


                          F5           G5  Eb5
                                           PM----|
|----------------------------|-------------------------|
|----------------------------|-------------------------|
|----------------------------|-------------------------|
|--1--1--1------1---1-(1)--3-|--(3)--3-5-----------1---|
|--1--1--1------1---1-(1)--3-|--(3)--3-5---1-1-1-1-1---|
|--1--1--1------1---1-(1)--3-|--(3)--3-5---1-1-1-1-1---|
|
|----------------------------|-------------------------|
|----------------------------|-------------------------|
|-10-------------------------|-------------------------|
|----13-12-13-(13)-12-10--12-|-(12)-10-8-7-8---7-------|
|----------------------------|---------------------8---|
|----------------------------|-------------------------|


  Eb5
|-----------------------------|-----------------------|
|-----------------------------|-----------------------|
|-----------------------------|-----------------------|
|--1-----1---1---1-1--(1)---1-|--(1)-1-(1)-1-(1)-1-1--|
|--1-----1---1---1-1--(1)---1-|--(1)-1-(1)-1-(1)-1-1--|
|--1-----1---1---1-1--(1)---1-|--(1)-1-(1)-1-(1)-1-1--|
|
|-----------------------------|-----------------------|
|-----------------------------|-----------------------|
|-----------------------------|-----------------------|
|-12b13====(12)------(12)r-12-|-(12)------------------|
|-----------------------------|-----------------------|
|-----------------------------|-----------------------|


                          F5           G5  Eb5
                                           PM----|
|----------------------------|-------------------------|
|----------------------------|-------------------------|
|----------------------------|-------------------------|
|--1--1--1------1---1-(1)--3-|--(3)--3-5-----------1---|
|--1--1--1------1---1-(1)--3-|--(3)--3-5---1-1-1-1-1---|
|--1--1--1------1---1-(1)--3-|--(3)--3-5---1-1-1-1-1---|
|
|----------------------------|-------------------------|
|----------------------------|-------------------------|
|-10-------------------------|-------------------------|
|----13-12-13-(13)-12-10--12-|-(12)-10-8-7-8---7-------|
|----------------------------|---------------------8---|
|----------------------------|-------------------------|


    Slower Q=179
    Eb5                      D5
                                           PM--------|
||------------------------------|----------------------|
||o-----------------------------|----------------------|
||------------------------------|----------------------|
||---1-----1---1---1-1--(1)---0-|--(0)-----------------|
||o--1-----1---1---1-1--(1)---0-|--(0)-----0-0-0-0-0-0-|
||---1-----1---1---1-1--(1)---0-|--(0)-----0-0-0-0-0-0-|
|
||------------------------------|----------------------|
||o-----------------------------|----------------------|
||------------------------------|----------------------|
||--12b13====(12)------(12)r-12-|-(12)-----------------|
||o-----------------------------|----------------------|
||------------------------------|----------------------|


  Eb5                     F5           G5  Eb5
                                           PM----|
|----------------------------|-------------------------||
|----------------------------|------------------------o||
|----------------------------|-------------------------||
|--1--1--1------1---1-(1)--3-|--(3)--3-5-----------1---||
|--1--1--1------1---1-(1)--3-|--(3)--3-5---1-1-1-1-1--o||
|--1--1--1------1---1-(1)--3-|--(3)--3-5---1-1-1-1-1---||
|
|----------------------------|-------------------------||
|----------------------------|------------------------o||
|-10-------------------------|-------------------------||
|----13-12-13-(13)-12-10--12-|-(12)-10-8-7-8---7-------||
|----------------------------|---------------------8--o||
|----------------------------|-------------------------||


  Eb5
|----------------------------|---------*|
|----------------------------|---------*|
|----------------------------|---------*|
|--1-----1---1---1-----------|--(1)----*|
|--1-----1---1---1-----------|--(1)----*|
|--1-----1---1---1-----------|--(1)----*|
|
|----------------------------|---------*|
|----------------------------|---------*|
|----------------------------|---------*|
|-12b13====(12)-----(12)r-12-|-(12)----*|
|----------------------------|---------*|
|----------------------------|---------*|

12. Nevada's Grace - I hate this song, won't have a tab for a while. Still keep checking for updates.

13. FIVE VICODIN CHASED WITH A SHOT OF CLARITY

Gtr I (C G C F A D)
Gtr II (C G C F A D)
Gtr III (C G C F A D)

 Intro
  Gtrs I, II
|----------|------------|----------|------|
|----------|------------|----------|------|
|----------|------------|----------|------|
|-0--------|--3---------|-2--------|-3----|
|-1--------|--5---------|-3--------|-1----|
|-0--------|-(0)--------|----------|------|


  D6                                Dm
  Gtrs I, II
|---------------------------------|-----------------------------------|
|---------------------------------|-----------------------------------|
|---------------------------------|-----------------------------------|
|-0-------------------------------|--3--------------------------------|
|-1-------------------------------|--5--------------------------------|
|-0-------------------------------|-(0)-------------------------------|
|
| Gtr III
|---------------------------------|-----------------------------------|
|---------------------------------|-----------------------------------|
|-7-7-7-7-7-7-7-7-7-7-7-7-7-7-7-7-|--7--7-7-7-7-7-7-7-7-7-7-7-7-7-7-7-|
|-x-x-x-x-x-x-x-x-x-x-x-x-x-x-x-x-|--x--x-x-x-x-x-x-x-x-x-x-x-x-x-x-x-|
|-5-5-5-5-5-5-5-5-5-5-5-5-5-5-5-5-|--5--5-5-5-5-5-5-5-5-5-5-5-5-5-5-5-|
|---------------------------------|-----------------------------------|


  C                                 Bb5
|---------------------------------|---------------------------------||
|---------------------------------|---------------------------------||
|---------------------------------|---------------------------------||
|-2-------------------------------|-3-----------------------3-------||
|-3-------------------------------|-1-----------------------1-------||
|---------------------------------|---------------------------------||
|
|---------------------------------|---------------------------------||
|---------------------------------|---------------------------------||
|-7-7-7-7-7-7-7-7-7-7-7-7-7-7-7-7-|-7-7-7-7-7-7-7-7-7-7-7-7-7-7-7-7-||
|-x-x-x-x-x-x-x-x-x-x-x-x-x-x-x-x-|-x-x-x-x-x-x-x-x-x-x-x-x-x-x-x-x-||
|-5-5-5-5-5-5-5-5-5-5-5-5-5-5-5-5-|-5-5-5-5-5-5-5-5-5-5-5-5-5-5-5-5-||
|---------------------------------|---------------------------------||


   Verse
    Double-Time Q=184
    N.C.            D5
    Gtrs I, II
                    PM--------------------|
||------------------------|-----------------|
||o-----------------------|-----------------|
||------------------------|-----------------|
||------------------------|-----------------|
||o-----------------0-0-0-|-0-0-0-0-0-0-0-0-|
||--0-3-5-(5)s8-(8)-0-0-0-|-0-0-0-0-0-0-0-0-|


  N.C.
|-----------------------|------------------|
|-----------------------|------------------|
|-----------------------|------------------|
|-----------------------|-3-2---/6-5-3-0---|
|-------------------5-3-|-----3------------|
|-0-3-5-(5)s8-(8)-0-----|------------------|


  N.C.            D5
                  PM--------------------|
|-----------------------|-----------------|
|-----------------------|-----------------|
|-----------------------|-----------------|
|-----------------------|-----------------|
|-----------------0-0-0-|-0-0-0-0-0-0-0-0-|
|-0-3-5-(5)s8-(8)-0-0-0-|-0-0-0-0-0-0-0-0-|


  N.C.
                                      PM
|-----------------------|--------------------||
|-----------------------|-------------------o||
|-----------------------|--------------------||
|-----------------------|--------------------||
|-----------------------|-------------------o||
|-0-3-5-(5)s7-(7)-0-5s8-|-7-0-5-0-7-5-3-5----||


   Pre-Chorus
    Bb5
    Gtrs I, II
||------------------------|----------------------|
||o-----------------------|----------------------|
||------------------------|----------------------|
||---------10-(10)--------|---10-(10)------------|
||o-8h10p8-----------8h10p|=8-----------8h10p8---|
||------------------------|----------------------|
|
|   Gtr III
||------------------------|----------------------|
||o-----------------------|----------------------|
||------------------------|----------------------|
||--8--8-8--8---8--8-8--8-|-8--8---8--8-8--8-8-8-|
||o-8--8-8--8---8--8-8--8-|-8--8---8--8-8--8-8-8-|
||--8--8-8--8---8--8-8--8-|-8--8---8--8-8--8-8-8-|


  D5
|---------------------|----------------------|
|---------------------|----------------------|
|---------------------|----------------------|
|-------10-(10)-------|---10-(10)------------|
|-7h8p7-----------7h8p|=7-----------7h8p7----|
|---------------------|----------------------|
|
|---------------------|----------------------|
|---------------------|----------------------|
|---------------------|----------------------|
|-0-0-0--0---0--0-0-0-|-0--0---0--0-0-0-0-0--|
|-0-0-0--0---0--0-0-0-|-0--0---0--0-0-0-0-0--|
|-0-0-0--0---0--0-0-0-|-0--0---0--0-0-0-0-0--|


  1.
  C5
|--------------------------|--------------------------|
|--------------------------|--------------------------|
|--------------------------|--------------------------|
|-----------7-(7)----------|-----7-(7)----------------|
|--5h=7p=5------------5h=7p|==5------------5h=7p=5----|
|--------------------------|--------------------------|
|
|--------------------------|--------------------------|
|--------------------------|--------------------------|
|--------------------------|--------------------------|
|-10-10-10-10-10--10-10-10-|-10-10-10--10-10-10-10-10-|
|-10-10-10-10-10--10-10-10-|-10-10-10--10-10-10-10-10-|
|-10-10-10-10-10--10-10-10-|-10-10-10--10-10-10-10-10-|


|--------------------------|---------------------------||
|--------------------------|--------------------------o||
|--------------------------|---------------------------||
|-----------5-(5)----------|-----5-(5)--5--5--3--5-----||
|--3h=5p=3------------3h=5p|==3-----------------------o||
|--------------------------|---------------------------||
|
|--------------------------|---------------------------||
|--------------------------|--------------------------o||
|--------------------------|---------------------------||
|-10-10-10-10-10--10-10-10-|-10-10-10--10-10-10-10-10--||
|-10-10-10-10-10--10-10-10-|-10-10-10--10-10-10-10-10-o||
|-10-10-10-10-10--10-10-10-|-10-10-10--10-10-10-10-10--||


  2.
  C5
|--------------------------|------------------------|-------------|---------||
|--------------------------|------------------------|-------------|---------||
|--------------------------|------------------------|-------------|---------||
|-----------7-(7)----------|-----7-(7)--------------|-------------|---------||
|--5h=7p=5------------5h=7p|==5------------5-----3--|--(3)--------|--(3)----||
|--------------------------|------------------------|-------------|---------||
|
|--------------------------|------------------------|-------------|---------||
|--------------------------|------------------------|-------------|---------||
|--------------------------|------------------------|-------------|---------||
|-10-10-10-10-10--10-10-10-|-10-10-10--10-10-10-10--|-(10)--------|-(10)----||
|-10-10-10-10-10--10-10-10-|-10-10-10--10-10-10-10--|-(10)--------|-(10)----||
|-10-10-10-10-10--10-10-10-|-10-10-10--10-10-10-10--|-(10)--------|-(10)----||


 Chorus
  $
  D5                              F5                                    Ab5
  Gtrs I, II
|-----------------|-----------------|-------------------|-----------------|
|-----------------|-----------------|-------------------|-----------------|
|-----------------|-----------------|-------------------|-----------------|
|-0-0-0-0-0-0-0-0-|-0-0-0-0-0-0-0-3-|-(3)-3-3-3-3-3-3-3-|-3-3-3-3-3-3-3-6-|
|-0-0-0-0-0-0-0-0-|-0-0-0-0-0-0-0-3-|-(3)-3-3-3-3-3-3-3-|-3-3-3-3-3-3-3-6-|
|-0-0-0-0-0-0-0-0-|-0-0-0-0-0-0-0-3-|-(3)-3-3-3-3-3-3-3-|-3-3-3-3-3-3-3-6-|


  Ab5             N.C.
  Gtr I
|-------------------|------------------|
|-------------------|------------------|
|-------------------|----------------7-|
|-(6)-6-6-6-6-6-6---|----------------x-|
|-(6)-6-6-6-6-6-6---|----------------5-|
|-(6)-6-6-6-6-6-6-0-|-6p0-6p0-5h6-0----|
|
| Gtr II
|-------------------|------------------|
|-------------------|------------------|
|-------------------|---------------12-|
|-(6)-6-6-6-6-6-6---|----------------x-|
|-(6)-6-6-6-6-6-6---|---------------10-|
|-(6)-6-6-6-6-6-6-0-|-6p0-6p0-5h6-0----|


                                                 D5
|-------------------------|------------------------|
|-------------------------|------------------------|
|--(7)--7--10-(10)-10---3-|--(3)--3---5--(5)--5----|
|-------x---x-------x---x-|-------x---x-------x--0-|
|--(5)--5---8--(8)--8---1-|--(1)--1---3--(3)--3--0-|
|-------------------------|----------------------0-|
|
|-------------------------|------------------------|
|-------------------------|------------------------|
|-(12)-12--14-(14)-14--15-|-(15)-15--17-(17)-17----|
|-------x---x-------x---x-|-------x---x-------x--0-|
|-(10)-10--12-(12)-12--13-|-(13)-13--15-(15)-15--0-|
|-------------------------|----------------------0-|


  D5                                F5                                    Ab5
  Gtrs I, II
|-------------------|-----------------|-------------------|-----------------|
|-------------------|-----------------|-------------------|-----------------|
|-------------------|-----------------|-------------------|-----------------|
|-(0)-0-0-0-0-0-0-0-|-0-0-0-0-0-0-0-3-|-(3)-3-3-3-3-3-3-3-|-3-3-3-3-3-3-3-6-|
|-(0)-0-0-0-0-0-0-0-|-0-0-0-0-0-0-0-3-|-(3)-3-3-3-3-3-3-3-|-3-3-3-3-3-3-3-6-|
|-(0)-0-0-0-0-0-0-0-|-0-0-0-0-0-0-0-3-|-(3)-3-3-3-3-3-3-3-|-3-3-3-3-3-3-3-6-|


  Ab5             N.C.
  Gtr I
|-------------------|------------------|
|-------------------|------------------|
|-------------------|----------------7-|
|-(6)-6-6-6-6-6-6---|----------------x-|
|-(6)-6-6-6-6-6-6---|----------------5-|
|-(6)-6-6-6-6-6-6-0-|-6p0-6p0-5h6-0----|
|
| Gtr II
|-------------------|------------------|
|-------------------|------------------|
|-------------------|---------------12-|
|-(6)-6-6-6-6-6-6---|----------------x-|
|-(6)-6-6-6-6-6-6---|---------------10-|
|-(6)-6-6-6-6-6-6-0-|-6p0-6p0-5h6-0----|


                                            To Coda
|-------------------------|---------------------------||
|-------------------------|---------------------------||
|--(7)--7---9--(9)--9--10-|-(10)-10--12-(12)-12-12-12-||
|-------x---x-------x---x-|-------x---x-------x--x--x-||
|--(5)--5---7--(7)--7---8-|--(8)--8--10-(10)-10-10-10-||
|-------------------------|---------------------------||
|
|-------------------------|---------------------------||
|-------------------------|---------------------------||
|-(12)-12--14-(14)-14--10-|-(10)-10--12-(12)-12-12-12-||
|-------x---x-------x---x-|-------x---x-------x--x--x-||
|-(10)-10--12-(12)-12---8-|--(8)--8--10-(10)-10-10-10-||
|-------------------------|---------------------------||


   Verse
    N.C.            D5
    Gtrs I, II
                    PM------------|  PM----------|
||--------------------------|----------------------|
||o-------------------------|----------------------|
||--------------------------|----------------------|
||--------------------------|----------------------|
||o-----------------0-0-0-0-|-0-0-0--0-0-0-0-0-0-0-|
||--0-3-5-(5)s8-(8)-0-0-0-0-|-0-0-0--0-0-0-0-0-0-0-|


   PM----------|  PM------------|  PM----|
|-------------------|-----------------------|
|-------------------|-----------------------|
|-------------------|-----------------------|
|-------------------|-----------------------|
|--0-0-0-0-0-0-0--0-|-0-0-0-0-0-0--0-0-0-0--|
|--0-0-0-0-0-0-0--0-|-0-0-0-0-0-0--0-0-0-0--|


  1.
  N.C.
  Gtr I
|-----------------------|------------------||
|-----------------------|-----------------o||
|-----------------------|------------------||
|-----------------------|-3-2---/6-5-3-0---||
|-------------------5-3-|-----3-----------o||
|-0-3-5-(5)s8-(8)-0-----|------------------||


  2.
  Gtrs I, II
|-----------------------|-------------------|
|-----------------------|-------------------|
|-----------------------|-------------------|
|-----------------------|-3-2---/6-5-3-0----|
|-------------------5-3-|-----3-------------|
|-0-3-5-(5)s8-(8)-0-----|-------------------|


  N.C.            D5
                  PM         PM         PM       PM         PM
|----------------------|-------------|-------------|-------------|
|----------------------|-------------|-------------|-------------|
|----------------------|-------------|-------------|-------------|
|-------------------0--|-0-----0--0--|----0--0-----|-0--0-----0--|
|-----------------0-0--|-0---0-0--0--|--0-0--0---0-|-0--0---0-0--|
|-0-3-5-(5)s8-(8)-0-0--|-0---0-0--0--|--0-0--0---0-|-0--0---0-0--|


  N.C.
|-----------------------|-----------------||
|-----------------------|-----------------||
|-----------------------|-----------------||
|-----------------------|-3-2---/6-5-3-0--||
|-------------------5-3-|-----3-----------||
|-0-3-5-(5)s8-(8)-0-----|-----------------||


   Pre-Chorus
    Bb5
    Gtrs I, II
||------------------------|----------------------|
||o-----------------------|----------------------|
||------------------------|----------------------|
||---------10-(10)--------|---10-(10)------------|
||o-8h10p8-----------8h10p|=8-----------8h10p8---|
||------------------------|----------------------|
|
|   Gtr III
||------------------------|----------------------|
||o-----------------------|----------------------|
||------------------------|----------------------|
||--8--8-8--8---8--8-8--8-|-8--8---8--8-8--8-8-8-|
||o-8--8-8--8---8--8-8--8-|-8--8---8--8-8--8-8-8-|
||--8--8-8--8---8--8-8--8-|-8--8---8--8-8--8-8-8-|


  D5
|---------------------|----------------------|
|---------------------|----------------------|
|---------------------|----------------------|
|-------10-(10)-------|---10-(10)------------|
|-7h8p7-----------7h8p|=7-----------7h8p7----|
|---------------------|----------------------|
|
|---------------------|----------------------|
|---------------------|----------------------|
|---------------------|----------------------|
|-0-0-0--0---0--0-0-0-|-0--0---0--0-0-0-0-0--|
|-0-0-0--0---0--0-0-0-|-0--0---0--0-0-0-0-0--|
|-0-0-0--0---0--0-0-0-|-0--0---0--0-0-0-0-0--|


  C5
|--------------------------|--------------------------|
|--------------------------|--------------------------|
|--------------------------|--------------------------|
|-----------7-(7)----------|-----7-(7)----------------|
|--5h=7p=5------------5h=7p|==5------------5h=7p=5----|
|--------------------------|--------------------------|
|
|--------------------------|--------------------------|
|--------------------------|--------------------------|
|--------------------------|--------------------------|
|-10-10-10-10-10--10-10-10-|-10-10-10--10-10-10-10-10-|
|-10-10-10-10-10--10-10-10-|-10-10-10--10-10-10-10-10-|
|-10-10-10-10-10--10-10-10-|-10-10-10--10-10-10-10-10-|


                                       D.S. al Coda
|--------------------------|---------------------------||
|--------------------------|--------------------------o||
|--------------------------|---------------------------||
|-----------5-(5)----------|-----5-(5)--5--5--3--5-----||
|--3h=5p=3------------3h=5p|==3-----------------------o||
|--------------------------|---------------------------||
|
|--------------------------|---------------------------||
|--------------------------|--------------------------o||
|--------------------------|---------------------------||
|-10-10-10-10-10--10-10-10-|-10-10-10--10-10-10-10-10--||
|-10-10-10-10-10--10-10-10-|-10-10-10--10-10-10-10-10-o||
|-10-10-10-10-10--10-10-10-|-10-10-10--10-10-10-10-10--||


 Guitar Break
  &
  D5
  Gtrs I, II
|----------|------------|------------|--------|
|----------|------------|------------|--------|
|----------|------------|------------|--------|
|-0--------|-(0)--------|-(0)--------|-(0)----|
|-0--------|-(0)--------|-(0)--------|-(0)----|
|-0--------|-(0)--------|-(0)--------|-(0)----|


  D5
|------------|------------|------------|--------||
|------------|------------|------------|--------||
|------------|------------|------------|--------||
|-(0)--------|-(0)--------|-(0)--------|-(0)----||
|-(0)--------|-(0)--------|-(0)--------|-(0)----||
|-(0)--------|-(0)--------|-(0)--------|-(0)----||


   Interlude
    Slightly Faster Q=188
    D5
    Gtr I
    PM--|     PM--------|
||--------------------|-------------------|
||o-------------------|-------------------|
||--------------------|-------------------|
||--------------------|-------------------|
||o-0-0-0-----0-(0)-0-|-(0)---------------|
||--0-0-0-----0-(0)-0-|-(0)---------------|
|
|   Gtr II
|   PM-------------------------------------
||--------------------|-------------------|
||o-------------------|-------------------|
||--------------------|-------------------|
||--------------------|-------------------|
||o-8-5-8-5-8-5--8--5-|--8--5-8-5-8-5-8-5-|
||--------------------|-------------------|


      PM------------|
|-----------------|--------------------|
|-----------------|--------------------|
|-----------------|--------------------|
|-----------------|--------------------|
|-----0-0---0---0-|-(0)----------------|
|-----0-0---0---0-|-(0)----------------|
|
|-----------------------------------|
|-----------------|--------------------|
|-----------------|--------------------|
|-----------------|--------------------|
|-----------------|--------------------|
|-7-3-7-3-7-3-7-3-|--7--3-7-3-7-3-7-3--|
|-----------------|--------------------|


  D5
   PM--|       PM--------|
|----------------------|----------------------|
|----------------------|----------------------|
|----------------------|----------------------|
|----------------------|----------------------|
|--0-0--0------0-(0)-0-|-(0)------------------|
|--0-0--0------0-(0)-0-|-(0)------------------|
|
|  PM------------------------------------------
|----------------------|----------------------|
|----------------------|----------------------|
|----------------------|----------------------|
|----------------------|----------------------|
|-10-7-10-7-10-7-10--7-|-10--7-10-7-10-7-10-7-|
|----------------------|----------------------|


       PM-------------|
|-------------------|--------------------||
|-------------------|-------------------o||
|-------------------|--------------------||
|-------------------|--------------------||
|------0-0---0----0-|-(0)---------------o||
|------0-0---0----0-|-(0)----------------||
|
|-------------------------------------|
|-------------------|--------------------||
|-------------------|-------------------o||
|-------------------|--------------------||
|-------------------|--------------------||
|-10-7-9-6-9-6-10-6-|--9--6-9-6-9-6-9-6-o||
|-------------------|--------------------||


    Faster Q=192
    N.C.
||--10----10----------------|-------------------------|
||o----10----10-10-11-10-11-|-13-10-13-10-10-11-10----|
||--------------------------|----------------------10-|
||--------------------------|-------------------------|
||o-------------------------|-------------------------|
||--------------------------|-------------------------|
|
|    PM------------------------------------------------
||--------------------------|-------------------------|
||o-------------------------|-------------------------|
||--------------------------|-------------------------|
||--------------------------|-------------------------|
||o--8--5--8--5--8--5--8--5-|--8--5--8--5--8--5--8--5-|
||--------------------------|-------------------------|


|-10----10----------------|--------------------------|
|----10----10-10-11-10-11-|-13-10-13-10-10-11-10-----|
|-------------------------|----------------------10--|
|-------------------------|--------------------------|
|-------------------------|--------------------------|
|-------------------------|--------------------------|
|
|------------------------------------------------|
|-------------------------|--------------------------|
|-------------------------|--------------------------|
|-------------------------|--------------------------|
|-------------------------|--------------------------|
|--7--3--7--3--7--3--7--3-|--7--3--7--3--7--3--7--3--|
|-------------------------|--------------------------|


  N.C.
|-10----10----------------|-------------------------|
|----10----10-10-11-10-11-|-13-10-13-10-10-11-10----|
|-------------------------|----------------------10-|
|-------------------------|-------------------------|
|-------------------------|-------------------------|
|-------------------------|-------------------------|
|
|  PM------------------------------------------------
|-------------------------|-------------------------|
|-------------------------|-------------------------|
|-------------------------|-------------------------|
|-------------------------|-------------------------|
|-10--7-10--7-10--7-10--7-|-10--7-10--7-10--7-10--7-|
|-------------------------|-------------------------|


 1.
|-10----10----------------|--------------------------||
|----10----10-10-11-10-11-|-13-10-13-10-10-11-10----o||
|-------------------------|----------------------10--||
|-------------------------|--------------------------||
|-------------------------|-------------------------o||
|-------------------------|--------------------------||
|
|------------------------------------------------|
|-------------------------|--------------------------||
|-------------------------|-------------------------o||
|-------------------------|--------------------------||
|-------------------------|--------------------------||
|-10--7--9--6--9--6--9--6-|--9--6--9--6--9--6--9--6-o||
|-------------------------|--------------------------||


  2.
  G5                               D5
  Gtr I                            Gtrs I, II
        \0.5________\1.5______|
|----------------|-------------------||
|----------------|-------------------||
|----------------|-------------------||
|-5----(5)-------|-(5)-------(5)---0-||
|-5----(5)-------|-(5)-------(5)---0-||
|-5----(5)-------|-(5)-------(5)---0-||


 Chorus
  D5                                F5                                    Ab5
  Gtrs I, II
|-------------------|-----------------|-------------------|-----------------|
|-------------------|-----------------|-------------------|-----------------|
|-------------------|-----------------|-------------------|-----------------|
|-(0)-0-0-0-0-0-0-0-|-0-0-0-0-0-0-0-3-|-(3)-3-3-3-3-3-3-3-|-3-3-3-3-3-3-3-6-|
|-(0)-0-0-0-0-0-0-0-|-0-0-0-0-0-0-0-3-|-(3)-3-3-3-3-3-3-3-|-3-3-3-3-3-3-3-6-|
|-(0)-0-0-0-0-0-0-0-|-0-0-0-0-0-0-0-3-|-(3)-3-3-3-3-3-3-3-|-3-3-3-3-3-3-3-6-|


  Ab5             N.C.
  Gtr I
|-------------------|------------------|
|-------------------|------------------|
|-------------------|----------------7-|
|-(6)-6-6-6-6-6-6---|----------------x-|
|-(6)-6-6-6-6-6-6---|----------------5-|
|-(6)-6-6-6-6-6-6-0-|-6p0-6p0-5h6-0----|
|
| Gtr II
|-------------------|------------------|
|-------------------|------------------|
|-------------------|---------------12-|
|-(6)-6-6-6-6-6-6---|----------------x-|
|-(6)-6-6-6-6-6-6---|---------------10-|
|-(6)-6-6-6-6-6-6-0-|-6p0-6p0-5h6-0----|


                                                 D5
|-------------------------|------------------------|
|-------------------------|------------------------|
|--(7)--7--10-(10)-10---3-|--(3)--3---5--(5)--5----|
|-------x---x-------x---x-|-------x---x-------x--0-|
|--(5)--5---8--(8)--8---1-|--(1)--1---3--(3)--3--0-|
|-------------------------|----------------------0-|
|
|-------------------------|------------------------|
|-------------------------|------------------------|
|-(12)-12--14-(14)-14--15-|-(15)-15--17-(17)-17----|
|-------x---x-------x---x-|-------x---x-------x--0-|
|-(10)-10--12-(12)-12--13-|-(13)-13--15-(15)-15--0-|
|-------------------------|----------------------0-|


  D5                                F5                                    Ab5
  Gtrs I, II
|-------------------|-----------------|-------------------|-----------------|
|-------------------|-----------------|-------------------|-----------------|
|-------------------|-----------------|-------------------|-----------------|
|-(0)-0-0-0-0-0-0-0-|-0-0-0-0-0-0-0-3-|-(3)-3-3-3-3-3-3-3-|-3-3-3-3-3-3-3-6-|
|-(0)-0-0-0-0-0-0-0-|-0-0-0-0-0-0-0-3-|-(3)-3-3-3-3-3-3-3-|-3-3-3-3-3-3-3-6-|
|-(0)-0-0-0-0-0-0-0-|-0-0-0-0-0-0-0-3-|-(3)-3-3-3-3-3-3-3-|-3-3-3-3-3-3-3-6-|


  Ab5             N.C.
  Gtr I
|-------------------|------------------|
|-------------------|------------------|
|-------------------|----------------7-|
|-(6)-6-6-6-6-6-6---|----------------x-|
|-(6)-6-6-6-6-6-6---|----------------5-|
|-(6)-6-6-6-6-6-6-0-|-6p0-6p0-5h6-0----|
|
| Gtr II
|-------------------|------------------|
|-------------------|------------------|
|-------------------|---------------12-|
|-(6)-6-6-6-6-6-6---|----------------x-|
|-(6)-6-6-6-6-6-6---|---------------10-|
|-(6)-6-6-6-6-6-6-0-|-6p0-6p0-5h6-0----|


|-------------------------|-------------------------|
|-------------------------|-------------------------|
|--(7)--7---9--(9)--9--10-|-(10)-10--12-(12)-12---7-|
|-------x---x-------x---x-|-------x---x-------x---x-|
|--(5)--5---7--(7)--7---8-|--(8)--8--10-(10)-10---5-|
|-------------------------|-------------------------|
|
|-------------------------|-------------------------|
|-------------------------|-------------------------|
|-(12)-12--14-(14)-14--10-|-(10)-10--12-(12)-12--12-|
|-------x---x-------x---x-|-------x---x-------x---x-|
|-(10)-10--12-(12)-12---8-|--(8)--8--10-(10)-10--10-|
|-------------------------|-------------------------|


  N.C.
|-------------------------|---------------------------||
|-------------------------|---------------------------||
|--(7)--7---9--(9)--9--10-|-(10)-10--12-(12)-12-12-12-||
|-------x---x-------x---x-|-------x---x-------x--x--x-||
|--(5)--5---7--(7)--7---8-|--(8)--8--10-(10)-10-10-10-||
|-------------------------|---------------------------||
|
|-------------------------|---------------------------||
|-------------------------|---------------------------||
|-(12)-12--14-(14)-14--10-|-(10)-10--12-(12)-12-12-12-||
|-------x---x-------x---x-|-------x---x-------x--x--x-||
|-(10)-10--12-(12)-12---8-|--(8)--8--10-(10)-10-10-10-||
|-------------------------|---------------------------||


   Breakdown
    D5
    Gtrs I, II
    PM--|   PM--------|              PM----------|
||------------------|------------|-------------|----------|
||o-----------------|------------|-------------|----------|
||------------------|------------|-------------|----------|
||------------------|------------|-------------|----------|
||o-0-0-0---0-(0)-0-|-(0)--------|---0-0--0--0-|-(0)------|
||--0-0-0---0-(0)-0-|-(0)--------|---0-0--0--0-|-(0)------|


  1.
  D5                                                          N.C.
                                 <
  PM------|   PM--------|                  PM----------|
|---------------------|-------------|----------------|---------------||
|---------------------|-------------|----------------|--------10----o||
|---------------------|-------------|----------------|--------13-----||
|---------------------|----------0--|-(0)------------|---------------||
|-0-0-0-0-0---0-(0)-0-|-(0)------0--|-(0)--0-0--0--0-|-(0)----------o||
|-0-0-0-0-0---0-(0)-0-|-(0)------0--|-(0)--0-0--0--0-|-(0)-----------||


  2.
  D5                                                      N.C.
  PM------|   PM--------|              PM----------|
|---------------------|------------|-------------|--------------|
|---------------------|------------|-------------|--------10----|
|---------------------|------------|-------------|--------13----|
|---------------------|------------|-------------|--------------|
|-0-0-0-0-0---0-(0)-0-|-(0)--------|---0-0--0--0-|-(0)----------|
|-0-0-0-0-0---0-(0)-0-|-(0)--------|---0-0--0--0-|-(0)----------|


  D5
  PM--|   PM--------|
|-----------------|----------||
|-----------------|----------||
|-----------------|----------||
|-----------------|----------||
|-0-0-0---0-(0)-0-|-(0)------||
|-0-0-0---0-(0)-0-|-(0)------||


 Outro
  D5
  Gtr I
   PM---|         PM---------|
|--------------------------|--------------------------|
|--------------------------|--------------------------|
|--------------------------|--------------------------|
|--------------------------|--------------------------|
|--0--0--0--------0-(0)--0-|-(0)----------------------|
|--0--0--0--------0-(0)--0-|-(0)----------------------|
|
| Gtr II
|-10-------10-------10-----|-----10-------10-------10-|
|----14-14----14-14-----14-|-14-----14-14----14-14----|
|--------------------------|--------------------------|
|--------------------------|--------------------------|
|--------------------------|--------------------------|
|--------------------------|--------------------------|


         PM-----------------|
|-------------------------|-----------------------------|
|-------------------------|-----------------------------|
|-------------------------|-----------------------------|
|-------------------------|-----------------------------|
|--------0--0-----0-----0-|-(0)-------------------------|
|--------0--0-----0-----0-|-(0)-------------------------|
|
|-------10-------10-------|-10--------10-------10-(10)S=|
|-14-14----14-14----14-14-|-----14-14----14-14----------|
|-------------------------|-----------------------------|
|-------------------------|-----------------------------|
|-------------------------|-----------------------------|
|-------------------------|-----------------------------|


  D5
   PM-------|         PM---------|
|------------------------------|--------------------------|
|------------------------------|--------------------------|
|------------------------------|--------------------------|
|------------------------------|--------------------------|
|--0-0--0-0--0--------0-(0)--0-|-(0)----------------------|
|--0-0--0-0--0--------0-(0)--0-|-(0)----------------------|
|
|-12-----------12-------12-----|-----12-------12-------12-|
|------16---16----16-16-----16-|-16-----16-16----16-16----|
|------------------------------|--------------------------|
|------------------------------|--------------------------|
|------------------------------|--------------------------|
|------------------------------|--------------------------|


                                         N.C.
         PM-----------------|
|-------------------------|-------------------------------|
|-------------------------|--------------10---------------|
|-------------------------|--------------13---------------|
|-------------------------|-------------------------------|
|--------0--0-----0-----0-|-(0)---------------------------|
|--------0--0-----0-----0-|-(0)---------------------------|
|
|-------12-------12-------|-12--------12-------12-(12)S===|
|-16-16----16-16----16-16-|-----16-16----16-16------------|
|-------------------------|-------------------------------|
|-------------------------|-------------------------------|
|-------------------------|-------------------------------|
|-------------------------|-------------------------------|


  D5
   PM---|         PM---------|
|--------------------------|--------------------------|
|--------------------------|--------------------------|
|--------------------------|--------------------------|
|--------------------------|--------------------------|
|--0--0--0--------0-(0)--0-|-(0)----------------------|
|--0--0--0--------0-(0)--0-|-(0)----------------------|
|
|-14-------14-------14-----|-----14-------14-------14-|
|----18-18----18-18-----18-|-18-----18-18----18-18----|
|--------------------------|--------------------------|
|--------------------------|--------------------------|
|--------------------------|--------------------------|
|--------------------------|--------------------------|


         PM-----------------|
|-------------------------|--------------------------|
|-------------------------|--------------------------|
|-------------------------|--------------------------|
|-------------------------|--------------------------|
|--------0--0-----0-----0-|-(0)----------------------|
|--------0--0-----0-----0-|-(0)----------------------|
|
|-------14-------14-------|-14--------14-------14----|
|-18-18----18-18----18-18-|-----18-18----18-18----18-|
|-------------------------|--------------------------|
|-------------------------|--------------------------|
|-------------------------|--------------------------|
|-------------------------|--------------------------|


  D5
   PM-------|         PM---------|
|------------------------------|--------------------------|
|------------------------------|--------------------------|
|------------------------------|--------------------------|
|------------------------------|--------------------------|
|--0-0--0-0--0--------0-(0)--0-|-(0)----------------------|
|--0-0--0-0--0--------0-(0)--0-|-(0)----------------------|
|
|-15-----------15-------15-----|-----15-------15-------15-|
|------19---19----19-19-----19-|-19-----19-19----19-19----|
|------------------------------|--------------------------|
|------------------------------|--------------------------|
|------------------------------|--------------------------|
|------------------------------|--------------------------|


                                         N.C.
         PM-----------------|
|-------------------------|--------------------------|
|-------------------------|--------------10----------|
|-------------------------|--------------13----------|
|-------------------------|--------------------------|
|--------0--0-----0-----0-|-(0)----------------------|
|--------0--0-----0-----0-|-(0)----------------------|
|
|-------15-------15-------|-15--------15-------15----|
|-19-19----19-19----19-19-|-----19-19----19-19-------|
|-------------------------|--------------------------|
|-------------------------|--------------------------|
|-------------------------|--------------------------|
|-------------------------|--------------------------|


  D5                       N.C.
  Gtr I
  PM--|   PM--------|
|-----------------|----------------|-------------|-------------|
|-----------------|--------(10)----|-----(10)----|-----(10)----|
|-----------------|--------(13)----|-----(13)----|-----(13)----|
|-----------------|----------------|-------------|-------------|
|-0-0-0---0-(0)-0-|-(0)------------|-------------|-------------|
|-0-0-0---0-(0)-0-|-(0)------------|-------------|-------------|


  N.C.
  Gtr II
   <
|-16----16----16----16----|-16----16----16----16----|
|----20----20----20----20-|----20----20----20----20-|
|-------------------------|-------------------------|
|-------------------------|-------------------------|
|-------------------------|-------------------------|
|-------------------------|-------------------------|


|-16----16----16----16----|-----*|
|----20----20----20----20-|-----*|
|-------------------------|-----*|
|-------------------------|-----*|
|-------------------------|-----*|
|-------------------------|-----*|

14. YOU GIVE LOVE A BAD NAME

Gtr I (C G C F A D)
Gtr II (C G C F A D) 
Gtr III (C G C F A D)

 Intro
  Gtrs I, II
|---------|---------|---------|-------------------||
|---------|---------|---------|-------------------||
|---------|---------|---------|-------------------||
|---------|---------|---------|-------5s12-(12)\--||
|---------|---------|---------|-------5s12-(12)\--||
|---------|---------|---------|-------5s12-(12)\--||


   Guitar Solo
    C5/G   N.Ab5              Bb5           C5/G
    Gtrs I, II
           PM
||--------------------------|-----------------------|
||o-------------------------|-----------------------|
||---5----------------------|----------------5-5-5--|
||---5---------6--(6)-6-6-6-|--8------8--8---5-5-5--|
||o--3---------6--(6)-6-6-6-|--8------8--8---3-3-3--|
||---5-----5---6--(6)-6-6-6-|--8------8--8---5-5-5--|
|
|   Gtr III
|              ~~~~
||--------------------------|-----------------------|
||o-------------------------|-----------------------|
||--10b12----(10)---------8-|-10b12r(10)-8----------|
||--------------------------|---------------10------|
||o-------------------------|-----------------------|
||--------------------------|-----------------------|


  Ab5      Bb5          Eb5/Bb           C5/G
|-------------------------|---------------------||
|-------------------------|--------------------o||
|-----------------------8-|--8------8-----5-----||
|--6-----6---8--(8)-8-8-8-|--8------8-----5-----||
|--6-----6---8--(8)-8-8-6-|--6------6-----3----o||
|--6-----6---8--(8)-8-8-8-|--8------8-----5-----||
|
|            ~~~~                         ~~
|-------------------------|---------------------||
|-------------------------|--------------------o||
|-10b12----(10)---------8-|-10b12r(10)p8--------||
|-------------------------|--------------10-----||
|-------------------------|--------------------o||
|-------------------------|---------------------||


  Ab5     Bb5
|----------------------|---------||
|----------------------|---------||
|----------------------|---------||
|--6--------8---(8)----|--(8)----||
|--6--------8---(8)----|--(8)----||
|--6--------8---(8)----|--(8)----||
|
|           ~~~~~~~~~~~~~~~~~~
|----------------------|---------||
|----------------------|---------||
|-10b12---(10)-(10)----|-(10)----||
|----------------------|---------||
|----------------------|---------||
|----------------------|---------||


 Pre-Verse
  Faster Q=134
  N.C.
  PM--------------------------|      PM---------------
|-----------------|----------------|-----------------|
|-----------------|----------------|-----------------|
|-----------------|----------------|-----------------|
|---------1-1-----|---------1-1----|---------1-1-----|
|-3---1-3-----3-1-|-3---1-3-----3--|-3---1-3-----3-1-|
|---5-------------|---5------------|---5-------------|
|
|-----------------|----------------|-----------------|
|-----------------|----------------|---------------8-|
|-----------------|----------------|---------------8-|
|-----------------|----------------|---------------8-|
|-----------------|----------------|-----------------|
|-----------------|----------------|-----------------|


 -----------------------------|
|----------------------------------||
|----------------------------------||
|----------------------------------||
|------------------------1----1----||
|--3------------1--3------------3--||
|-------5--------------------------||
|
|  \1.5    \1.5    \1.5  \1.5
|----------------------------------||
|-(8)-----(8)-----(8)---(8)--------||
|-(8)-----(8)-----(8)---(8)--------||
|-(8)-----(8)-----(8)---(8)--------||
|----------------------------------||
|----------------------------------||


   Verse
    N.C.
    Gtrs I, II
    PM--------------------------|      PM--------------------------|
||------------------|----------------|-----------------|-----------------||
||o-----------------|----------------|-----------------|----------------o||
||------------------|----------------|-----------------|-----------------||
||----------1-1-----|---------1-1----|---------1-1-----|---------1-1-----||
||o-3---1-3-----3-1-|-3---1-3-----3--|-3---1-3-----3-1-|-3---1-3-----3--o||
||----5-------------|---5------------|---5-------------|---5-------------||


 Pre-Chorus
  $
  F5                      N.C.
  Gtrs I, II
                          PM-------------------
|----------|------------|---------------------|
|----------|------------|---------------------|
|----------|------------|---------------------|
|-3--------|-(3)--------|-------------1-1-----|
|-3--------|-(3)--------|-3-----1-3-------3-1-|
|-3--------|-(3)--------|---5-----------------|
|
| Gtr III
|----------|------------|---------------------|
|----------|------------|---------------------|
|----------|------------|---x-x-8-x-x-8-8-8-8-|
|----------|------------|---x-x-8-x-x-8-8-8-8-|
|----------|------------|---------------------|
|----------|------------|---------------------|


 -----------------------------|
|----------------------------------|
|----------------------------------|
|----------------------------------|
|------------------------1----1----|
|--3------------1--3------------3--|
|-------5--------------------------|
|
|  \1.5    \1.5    \1.5  \1.5
|----------------------------------|
|----------------------------------|
|-(8)-----(8)-----(8)---(8)--------|
|-(8)-----(8)-----(8)---(8)--------|
|----------------------------------|
|----------------------------------|


  F5                      (G)                 (A)
  Gtr I
                                    ~               ~
|----------|------------|-------------------|------------||
|----------|------------|-------------------|------------||
|----------|------------|-----------4-------|-------6----||
|-3--------|-(3)--------|---------5---------|-----7------||
|-3--------|-(3)--------|-----5-------------|---7--------||
|-3--------|-(3)--------|-5-----------------|-7----------||
|
| Gtr II
|----------|------------|-------------------|------------||
|----------|------------|-------------------|------------||
|----------|------------|-------------------|------------||
|-3--------|-(3)--------|-5-5---5-5-5-5-5-5-|-7-7-7-7----||
|-3--------|-(3)--------|-5-5---5-5-5-5-5-5-|-7-7-7-7----||
|-3--------|-(3)--------|-5-5---5-5-5-5-5-5-|-7-7-7-7----||


   Chorus
    C5/G      Ab5                   Bb5             C5/G
    Gtrs I, II
||--------------------------------|-----------------------------|
||o-------------------------------|-----------------------------|
||---5----5-5---------------------|-----------------5-5--5----5-|
||---5----5-5--6----(6)-6--6----6-|--8----8-8--8----5-5--5----5-|
||o--3----3-3--6----(6)-6--6----6-|--8----8-8--8----3-3--3----3-|
||---5----5-5--6----(6)-6--6----6-|--8----8-8--8----5-5--5----5-|
|
|   Gtr III
||--------8-8--------8--8-------8-|-------8-8-------8-8-------8-|
||o--8----8-8--8-----8--8--8----8-|--8----8-8--8----8-8--8----8-|
||--10b12-----10b12-------10b12---|-10b12-----10b12-----10b12---|
||--------------------------------|-----------------------------|
||o-------------------------------|-----------------------------|
||--------------------------------|-----------------------------|


                                                     To Coda
  Ab5       Bb5               Eb5/Bb      C5/G
|-------------------------------|------------------------------||
|-------------------------------|-----------------------------o||
|-----------------------------8-|--8----8-5--5----5-5--5----5--||
|--6----6-6--8----(8)-8--8----8-|--8----8-5--5----5-5--5----5--||
|--6----6-6--8----(8)-8--8----6-|--6----6-3--3----3-3--3----3-o||
|--6----6-6--8----(8)-8--8----8-|--8----8-5--5----5-5--5----5--||
|
|-------8-8--------8--8-------8-|-------8-8-------8-8-------8--||
|--8----8-8--8-----8--8--8----8-|--8----8-8--8----8-8--8----8-o||
|-10b12-----10b12-------10b12---|-10b12-----10b12-----10b12----||
|-------------------------------|------------------------------||
|-------------------------------|-----------------------------o||
|-------------------------------|------------------------------||


  Ab5       Bb5
                        6/4
|----------------------|-----------------||
|----------------------|-----------------||
|----------------------|-----------------||
|--6---------8--(8)----|--(8)------------||
|--6---------8--(8)----|--(8)------------||
|--6---------8--(8)----|--(8)------------||
|
|                ~~~~~~~~~~~~~
|-------8-8------------|-----------------||
|--8----8-8------------|-----------------||
|-10b12----------------|-----------------||
|-----------10-(10)----|-(10)------------||
|----------------------|-----------------||
|----------------------|-----------------||


 Pre-Verse
  N.C.
 4/4
  Gtrs I, II
  PM--------------------------|      PM--------------------|
|-----------------|----------------|-----------------|----------11---||
|-----------------|----------------|-----------------|----------15---||
|-----------------|----------------|-----------------|---------------||
|---------1-1-----|---------1-1----|---------1-1-----|---------------||
|-3---1-3-----3-1-|-3---1-3-----3--|-3---1-3-----3-1-|-3-3-3-3-------||
|---5-------------|---5------------|---5-------------|-5-5-5-5-------||


 Verse
  C5/G
  Gtr I
  PM----------|            PM----------|
|------------------------|---------------------|
|------------------------|---------------------|
|------------------------|---------------------|
|---------------5-(5)----|---------------5-----|
|-3-3-3-3-(3)-3-3-(3)----|-3-3-3-3-(3)-3-3-----|
|-5-5-5-5-(5)-5-5-(5)----|-5-5-5-5-(5)-5-5-----|
|
| Gtr II
| PM----------|            PM----------|
|------------------------|---------------------|
|------------------------|---------------------|
|------------------------|---------------------|
|---------------5-(5)----|---------------5-----|
|-3-3-3-3-(3)-3-3-(3)----|-3-3-3-3-(3)-3-3-----|
|-5-5-5-5-(5)-5-5-(5)----|-5-5-5-5-(5)-5-5-----|


                                           N.C.
  PM----------|            PM----------|
|------------------------|------------------------------|
|------------------------|------------------------------|
|------------------------|------------------------------|
|---------------5-(5)----|---------------5-1-1----------|
|-3-3-3-3-(3)-3-3-(3)----|-3-3-3-3-(3)-3-3-----3-(3)\---|
|-5-5-5-5-(5)-5-5-(5)----|-5-5-5-5-(5)-5-5--------------|
|
| PM----------|            PM----------|
|------------------------|------------------------------|
|------------------------|------------------------------|
|------------------------|------------------------------|
|---------------5-(5)----|---------------5-5-5----------|
|-3-3-3-3-(3)-3-3-(3)----|-3-3-3-3-(3)-3-3-----6-(6)\---|
|-5-5-5-5-(5)-5-5-(5)----|-5-5-5-5-(5)-5-5--------------|


  C5/G
  Gtr I
  PM----------|               PM----------|
|---------------------------|------------------------|
|---------------------------|------------------------|
|---------------------------|------------------------|
|---------------5-(5)-------|---------------5--------|
|-3-3-3-3-(3)-3-3-(3)-------|-3-3-3-3-(3)-3-3--------|
|-5-5-5-5-(5)-5-5-(5)-------|-5-5-5-5-(5)-5-5--------|
|
| Gtr II
| PM----------|               PM----------|
|---------------------------|------------------------|
|---------------------------|------------------------|
|---------------------------|------------------------|
|---------------5-(5)-------|---------------5--------|
|-3-3-3-3-(3)-3-3-(3)-------|-3-3-3-3-(3)-3-3--------|
|-5-5-5-5-(5)-5-5-(5)-------|-5-5-5-5-(5)-5-5--------|
|
| Gtr III
| PM--------------------------------------------|
|---------------------------|------------------------|
|---------------------------|------------------------|
|---------------------------|------------------------|
|------------------1--1-----|-----------------1-1----|
|-3--------1----3-------3-1-|-3--------1----3-----3--|
|-----5---------------------|-----5------------------|


                                        D.S. al Coda
                                              N.C.
  PM----------|               PM----------|
|---------------------------|------------------------------||
|---------------------------|------------------------------||
|---------------------------|------------------------------||
|---------------5-(5)-------|---------------5-1-1----------||
|-3-3-3-3-(3)-3-3-(3)-------|-3-3-3-3-(3)-3-3-----3-(3)\---||
|-5-5-5-5-(5)-5-5-(5)-------|-5-5-5-5-(5)-5-5--------------||
|
| PM----------|               PM----------|
|---------------------------|------------------------------||
|---------------------------|------------------------------||
|---------------------------|------------------------------||
|---------------5-(5)-------|---------------5-5-5----------||
|-3-3-3-3-(3)-3-3-(3)-------|-3-3-3-3-(3)-3-3-----6-(6)\---||
|-5-5-5-5-(5)-5-5-(5)-------|-5-5-5-5-(5)-5-5--------------||
|
| PM--------------------------------------------|
|---------------------------|------------------------------||
|---------------------------|------------------------------||
|---------------------------|------------------------------||
|------------------1--1-----|-----------------1-1----------||
|-3--------1----3-------3-1-|-3--------1----3-----3--------||
|-----5---------------------|-----5------------------------||


  &
  Ab5       Bb5
  Gtrs I, II
|----------------------|---------||
|----------------------|---------||
|----------------------|---------||
|--6---------8--(8)----|--(8)----||
|--6---------8--(8)----|--(8)----||
|--6---------8--(8)----|--(8)----||
|
| Gtr III
|                ~~~~~~~~~~~~~
|-------8-8------------|---------||
|--8----8-8------------|---------||
|-10b12----------------|---------||
|-----------10-(10)----|-(10)----||
|----------------------|---------||
|----------------------|---------||


 Guitar Solo
  C5/G    N.C. Ab5              Bb5            C5/G
            PM
|-----------------------------|-------------------------|
|-----------------------------|-------------------------|
|--5--------------------------|-----------------5--5-5--|
|--5------------6-(6)--6-6--6-|--8------8--8----5--5-5--|
|--3------------6-(6)--6-6--6-|--8------8--8----3--3-3--|
|--5--------5---6-(6)--6-6--6-|--8------8--8----5--5-5--|
|
|-----------------------------|-------------------------|
|-----------------------------|-------------------------|
|-10b12===(10)-10-----10---10-|-10r(10)-8----8-(8)------|
|-----------------------------|-----------10------------|
|-----------------------------|-------------------------|
|-----------------------------|-------------------------|


  Ab5   Bb5        Eb5/Bb     C5/G
|---------------------|------------------------|
|---------------------|------------------------|
|-------------------8-|--8-----5-----5---------|
|-6---6-8-(8)-8--8--8-|--8-----5-----5---------|
|-6---6-8-(8)-8--8--6-|--6-----3-----3---------|
|-6---6-8-(8)-8--8--8-|--8-----5-----5---------|
|
|---------------------|------------------------|
|---------------------|------------------------|
|-5-7---8--8s10-10s12-|-12s15-15s17-17--(17)\--|
|-x-x---x--x-----x----|--x-----x-----x---------|
|-3-5---6--6s=8--8s10-|-10s13-13s15-15--(15)\--|
|---------------------|------------------------|


  C5/G            N.C.    Ab5
                   PM
|---------------------------------------------------------------|
|---------------------------------------------------------------|
|--5------------------------------------------------------------|
|--5----------------------6------(6)-------6------6------6------|
|--3----------------------6------(6)-------6------6------6------|
|--5---------------5------6------(6)-------6------6------6------|
|
|  T    T          T    T         T    T          T    T
|---------------------------------------------------------------|
|-11p8h11-(11)s20-11p8h11p8-(8)\-11p8h11-(11)s20-11p8h11p8-(8)\-|
|---------------------------------------------------------------|
|---------------------------------------------------------------|
|---------------------------------------------------------------|
|---------------------------------------------------------------|


  Bb5                    C5/G
|----------------------------------------|
|----------------------------------------|
|--------------------------5--5--5-------|
|--8------8----8-----------5--5--5-------|
|--8------8----8-----------3--3--3-------|
|--8------8----8-----------5--5--5-------|
|
|  T    T    T    T    T
|----------------------------------------|
|-11p8-16p8-16p8-11p8-11-(11)s==20-(20)\-|
|----------------------------------------|
|----------------------------------------|
|----------------------------------------|
|----------------------------------------|


  Ab5           Bb5
|--------------------------------------|
|--------------------------------------|
|--------------------------------------|
|--6--------6----8------(8)------------|
|--6--------6----8------(8)------------|
|--6--------6----8------(8)------------|
|
|--8-------(8)--10-----(10)--(10)-(10)-|
|-11b13===(11)r-13b15==(13)--(13)r(13)-|
|--------------------------------------|
|--------------------------------------|
|--------------------------------------|
|--------------------------------------|


  PM----------------------------------------|
|---------------------------------|----------------------------------||
|---------------------------------|----------------------------------||
|---------------------------------|----------------------------------||
|---------------------------------|-----------------8---8---8---8----||
|-8---8---8---8---8---8---8---8---|-8---8---8---8---8---8---8---8----||
|-8---8---8---8---8---8---8---8---|-8---8---8---8---8---8---8---8----||
|
| PM--------------------------------------------------------------|
|---------------------------------|----------------------------------||
|---------------------------------|----------------------------------||
|---------------------------------|----------------------------------||
|-----------1---------------1-----|-----------1---------------1------||
|-3-1-3-1-3---3-1-3-1-3-1-3---3-1-|-3-1-3-1-3---3-1-3-1-3-1-3---3-1--||
|---------------------------------|----------------------------------||


 Guitar Break
  N.C.
|-----||
|-----||
|-----||
|-----||
|-----||
|-----||


   Chorus
    C5/G      Ab5                   Bb5             C5/G
    Gtrs I, II
||--------------------------------|-----------------------------|
||o-------------------------------|-----------------------------|
||---5----5-5---------------------|-----------------5-5--5----5-|
||---5----5-5--6----(6)-6--6----6-|--8----8-8--8----5-5--5----5-|
||o--3----3-3--6----(6)-6--6----6-|--8----8-8--8----3-3--3----3-|
||---5----5-5--6----(6)-6--6----6-|--8----8-8--8----5-5--5----5-|
|
|   Gtr III
||--------8-8--------8--8-------8-|-------8-8-------8-8-------8-|
||o--8----8-8--8-----8--8--8----8-|--8----8-8--8----8-8--8----8-|
||--10b12-----10b12-------10b12---|-10b12-----10b12-----10b12---|
||--------------------------------|-----------------------------|
||o-------------------------------|-----------------------------|
||--------------------------------|-----------------------------|


  Ab5       Bb5               Eb5/Bb      C5/G
|-------------------------------|------------------------------||
|-------------------------------|-----------------------------o||
|-----------------------------8-|--8----8-5--5----5-5--5----5--||
|--6----6-6--8----(8)-8--8----8-|--8----8-5--5----5-5--5----5--||
|--6----6-6--8----(8)-8--8----6-|--6----6-3--3----3-3--3----3-o||
|--6----6-6--8----(8)-8--8----8-|--8----8-5--5----5-5--5----5--||
|
|-------8-8--------8--8-------8-|-------8-8-------8-8-------8--||
|--8----8-8--8-----8--8--8----8-|--8----8-8--8----8-8--8----8-o||
|-10b12-----10b12-------10b12---|-10b12-----10b12-----10b12----||
|-------------------------------|------------------------------||
|-------------------------------|-----------------------------o||
|-------------------------------|------------------------------||


 Breakdown
  C5/G                 N.C.   Ab5                    Bb5
   PM---------------|          PM------------------|
|---------------------------|-------------------------------|
|---------------------------|-------------------------------|
|---------------------------|-------------------------------|
|---------------------------|-------------------------8--8--|
|--3----3-3-3-(3)-3--3------|--6----6---6--6-(6)-6-6--8--8--|
|--5----5-5-5-(5)-5--5------|--6----6---6--6-(6)-6-6--8--8--|
|
|                    ~~
|---------------------------|-------------------------------|
|---------------------------|-------------------------------|
|-10b12-------------10----8-|-10b12r==(10)----8-------------|
|---------------------------|------------------------10--8--|
|---------------------------|-------------------------------|
|---------------------------|-------------------------------|


  Ab5                  N.C.   Bb5                    Eb5C5/G
   PM---------------|          PM------------------|
|---------------------------|--------------------------------|
|---------------------------|--------------------------------|
|---------------------------|------------------------8--5----|
|---------------------------|------------------------8--5----|
|--6----6-6-6-(6)-6--6------|--8----8---8--8-(8)-8-8-6--3----|
|--6----6-6-6-(6)-6--6------|--8----8---8--8-(8)-8-8-8--5----|
|
|                    ~~                       ~~~
|---------------------------|--------------------------------|
|---------------------------|--------------------------------|
|-10b12-------------10----8-|-10b12r==(10)p8-----------------|
|---------------------------|----------------10--------------|
|---------------------------|--------------------------------|
|---------------------------|--------------------------------|


  C5/G                 N.C.   Ab5                    Bb5
   PM---------------|          PM------------------|
|---------------------------|-------------------------------|
|---------------------------|-------------------------------|
|---------------------------|-------------------------------|
|---------------------------|-------------------------8--8--|
|--3----3-3-3-(3)-3--3------|--6----6---6--6-(6)-6-6--8--8--|
|--5----5-5-5-(5)-5--5------|--6----6---6--6-(6)-6-6--8--8--|
|
|                    ~~
|---------------------------|-------------------------------|
|---------------------------|-------------------------------|
|-10b12-------------10----8-|-10b12r==(10)----8-------------|
|---------------------------|------------------------10--8--|
|---------------------------|-------------------------------|
|---------------------------|-------------------------------|


  Ab5                  N.C.   Bb5                    Eb5C5/G
   PM---------------|          PM------------------|
|---------------------------|--------------------------------||
|---------------------------|--------------------------------||
|---------------------------|------------------------8--5----||
|---------------------------|------------------------8--5----||
|--6----6-6-6-(6)-6--6------|--8----8---8--8-(8)-8-8-6--3----||
|--6----6-6-6-(6)-6--6------|--8----8---8--8-(8)-8-8-8--5----||
|
|                    ~~                       ~~~
|---------------------------|--------------------------------||
|-------------11------------|--------------------------------||
|-10b12-------------10----8-|-10b12r==(10)p8-----------------||
|---------------------------|----------------10--------------||
|---------------------------|--------------------------------||
|---------------------------|--------------------------------||


   Outro
    C5/G
    Gtr I
    PM-----------------------------------------------
||-------------------------|------------------------|
||o------------------------|------------------------|
||-------------------------|------------------------|
||-------------------------|------------------------|
||o-3-3-3-3-(3)-3-3-(3)----|-3-3-3-3-(3)-3-3-(3)----|
||--5-5-5-5-(5)-5-5-(5)----|-5-5-5-5-(5)-5-5-(5)----|
|
|   Gtr II
|   PM-----------------------------------------------
||-------------------------|------------------------|
||o------------------------|------------------------|
||-------------------------|------------------------|
||-------------------------|------------------------|
||o-3-3-3-3-(3)-3-3-(3)----|-3-3-3-3-(3)-3-3-(3)----|
||--5-5-5-5-(5)-5-5-(5)----|-5-5-5-5-(5)-5-5-(5)----|


                                           N.C.
 ----------------------------------------|
|------------------------|------------------------------||
|------------------------|-----------------------------o||
|------------------------|------------------------------||
|------------------------|-----------------1-1----------||
|-3-3-3-3-(3)-3-3-(3)----|-3-3-3-3-(3)-3-3-----3-(3)\--o||
|-5-5-5-5-(5)-5-5-(5)----|-5-5-5-5-(5)-5-5--------------||
|
|----------------------------------------|
|------------------------|------------------------------||
|------------------------|-----------------------------o||
|------------------------|------------------------------||
|------------------------|-----------------5-5----------||
|-3-3-3-3-(3)-3-3-(3)----|-3-3-3-3-(3)-3-3-----6-(6)\--o||
|-5-5-5-5-(5)-5-5-(5)----|-5-5-5-5-(5)-5-5--------------||






Tablature Legend
----------------
 h   - hammer-on
 p   - pull-off
 b   - bend
 pb  - pre-bend
 r   - bend release (if no number after the r, then release immediately)
 /\  - slide into or out of (from/to "nowhere")
 s   - legato slide
 S   - shift slide
 - natural harmonic
[n]  - artificial harmonic
n(n) - tapped harmonic
 ~   - vibrato
 tr  - trill
 T   - tap
 TP  - trem. picking
 PM  - palm muting
\n/  - tremolo bar dip; n = amount to dip
 \n  - tremolo bar down
 n/  - tremolo bar up
/n\  - tremolo bar inverted dip
 =   - hold bend; also acts as connecting device for hammers/pulls
 <> - volume swell (louder/softer)
 x   - on rhythm slash represents muted slash
 o   - on rhythm slash represents single note slash

Misc Legend
-----------
 |  - bar
||  - double bar
||o - repeat start
o|| - repeat end
*|  - double bar (ending)
 :  - bar (freetime)
 $  - Segno
 &  - Coda
Добавлено: 12.08.2013
Другие материалы по этой песне:
  • Аккорды и текст

Страница создана 12.08.2013
http://primanota.ru/atreyu/the-curse-chords.htm
Привет, Гость.
Предлагаем пройти революционный курс по гитаре.
Подарок от PrimaNota.Ru, забирай!