PrimaNota.ru - самый крупный в мире бесплатный архив песенных текстов, аккордов, табулатур и нот


Atreyu - Suicide Notes And Butterfly Kisses (album) - таба, видео

Регистрация Запомнить меня
Войти через:  Facebook Google Twitter Vk Yandex Mail.ru

Atreyu - Suicide Notes And Butterfly Kisses (album) - таба, видео

Печатать
Просмотров: 103
                           
Atreyu


Album: Suicide Notes and Butterfly Kisses 


A SONG FOR THE OPTIMISTS
                 

Gtr I (C G C F A D) - 'Untitled'
Gtr II (C G C F A D) - 'Untitled'

 Intro
  Q=158
  N.C.
 4/4
  Gtrs I, II
|-----|
|-----|
|-----|
|-----|
|-----|
|-----|


    D5         Bb5        D5      C5   Bb5    A5
||-----------|----------|------------|-------------||
||o----------|----------|------------|------------o||
||-----------|----------|------------|-------------||
||--0--------|-8--------|-0-------10-|-8------7----||
||o-0--------|-8--------|-0-------10-|-8------7---o||
||--0--------|-8--------|-0-------10-|-8------7----||
  D5                        Bb5
  Gtr I
|-------------------------|-------------------------|
|-------------------------|-------------------------|
|-------------------------|-------------------------|
|-0-----------------------|-8-----------------------|
|-0-----------------------|-8-----------------------|
|-0-----------------------|-8-----------------------|
|
| Gtr II
|-------------------------|-------------------------|
|-------------------------|-------------------------|
|-7-7-7-7-7-7-7-7-7-7-7-7-|-9-9-9-9-9-9-9-9-9-9-9-9-|
|-------------------------|-------------------------|
|-5-5-5-5-5-5-5-5-5-5-5-5-|-7-7-7-7-7-7-7-7-7-7-7-7-|
|-------------------------|-------------------------|
 D5                    C5     Bb5                     A5
|----------------------------|----------------------------------|
|----------------------------|----------------------------------|
|----------------------------|----------------------------------|
|-0---------------------10---|--8-----------------------7-------|
|-0---------------------10---|--8-----------------------7-------|
|-0---------------------10---|--8-----------------------7-------|
|
|----------------------------|----------------------------------|
|----------------------------|----------------------------------|
|-5-5-5-5-5-5-5-5-5-5-5----5-|-10-10-10-10-10-10-9-9-9-10-10-10-|
|----------------------------|----------------------------------|
|-3-3-3-3-3-3-3-3-3-3-3----3-|--8--8--8--8--8--8-7-7-7--8--8--8-|
|----------------------------|----------------------------------|


  D5                        Bb5
|-------------------------|-------------------------|
|-------------------------|-------------------------|
|-------------------------|-------------------------|
|-0-----------------------|-8-----------------------|
|-0-----------------------|-8-----------------------|
|-0-----------------------|-8-----------------------|
|
|-------------------------|-------------------------|
|-------------------------|-------------------------|
|-7-7-7-7-7-7-7-7-7-7-7-7-|-9-9-9-9-9-9-9-9-9-9-9-9-|
|-------------------------|-------------------------|
|-5-5-5-5-5-5-5-5-5-5-5-5-|-7-7-7-7-7-7-7-7-7-7-7-7-|
|-------------------------|-------------------------|


  A5                                    F5
|-------------------------------------|-------------------------------------||
|-------------------------------------|-------------------------------------||
|-------------------------------------|-------------------------------------||
|--7----------------------------------|--3----------------------------------||
|--7----------------------------------|--3----------------------------------||
|--7----------------------------------|--3----------------------------------||
|
|-------------------------------------|-------------------------------------||
|-------------------------------------|-------------------------------------||
|-10-10-10-10-10-10-10-10-10-10-10-10-|-10-10-10-10-10-10-10-10-10-10-10-10-||
|-------------------------------------|-------------------------------------||
|--8--8--8--8--8--8--8--8--8--8--8--8-|--8--8--8--8--8--8--8--8--8--8--8--8-||
|-------------------------------------|-------------------------------------||


   Verse
    D5                              F5
||--------------------------------|-------------------------------|
||o-------------------------------|-------------------------------|
||--------------------------------|-------------------------------|
||---0--0--0-0-0-0-0-0-0--0--0--0-|--3--3--3--3--3--3-3-3-3-3-3-3-|
||o--0--0--0-0-0-0-0-0-0--0--0--0-|--3--3--3--3--3--3-3-3-3-3-3-3-|
||---0--0--0-0-0-0-0-0-0--0--0--0-|--3--3--3--3--3--3-3-3-3-3-3-3-|
|
||--------------------------------|-------------------------------|
||o-------------------------------|-------------------------------|
||--10-10-10-7-7-7-9-9-9-10-10-10-|-12-12-12-10-10-10-9-9-9-7-7-7-|
||--------------------------------|-------------------------------|
||o--8--8--8-5-5-5-7-7-7--8--8--8-|-10-10-10--8--8--8-7-7-7-5-5-5-|
||--------------------------------|-------------------------------|

  Bb5                          C5
|----------------------------|-------------------------------------|
|----------------------------|-------------------------------------|
|----------------------------|-------------------------------------|
|-8-8-8-8-8-8-8-8-8--8--8--8-|-10-10-10-10-10-10-10-10-10-10-10-10-|
|-8-8-8-8-8-8-8-8-8--8--8--8-|-10-10-10-10-10-10-10-10-10-10-10-10-|
|-8-8-8-8-8-8-8-8-8--8--8--8-|-10-10-10-10-10-10-10-10-10-10-10-10-|
|
|----------------------------|-------------------------------------|
|----------------------------|-------------------------------------|
|-7-7-7-7-7-7-9-9-9-10-10-10-|--9--9--9--7--7--7--5--5--5--3--3--3-|
|----------------------------|-------------------------------------|
|-5-5-5-5-5-5-7-7-7--8--8--8-|--7--7--7--5--5--5--3--3--3--1--1--1-|
|----------------------------|-------------------------------------|


  D5                           F5
|----------------------------|-------------------------------|
|----------------------------|-------------------------------|
|----------------------------|-------------------------------|
|-0-0-0-0-0-0-0-0-0--0--0--0-|--3--3--3--3--3--3-3-3-3-3-3-3-|
|-0-0-0-0-0-0-0-0-0--0--0--0-|--3--3--3--3--3--3-3-3-3-3-3-3-|
|-0-0-0-0-0-0-0-0-0--0--0--0-|--3--3--3--3--3--3-3-3-3-3-3-3-|
|
|----------------------------|-------------------------------|
|----------------------------|-------------------------------|
|-------7-7-7-9-9-9-10-10-10-|-12-12-12-10-10-10-9-9-9-7-7-7-|
|-7-7-7----------------------|-------------------------------|
|-------5-5-5-7-7-7--8--8--8-|-10-10-10--8--8--8-7-7-7-5-5-5-|
|-7-7-7----------------------|-------------------------------|


  Bb5                             C5
|-------------------------------|--------------------------------------||
|-------------------------------|-------------------------------------o||
|-------------------------------|--------------------------------------||
|-8-8-8-8-8-8--8--8--8--8--8--8-|-10-10-10-10-10-10-10-10-10-10-10-10--||
|-8-8-8-8-8-8--8--8--8--8--8--8-|-10-10-10-10-10-10-10-10-10-10-10-10-o||
|-8-8-8-8-8-8--8--8--8--8--8--8-|-10-10-10-10-10-10-10-10-10-10-10-10--||
|
|-------------------------------|--------------------------------------||
|-------------------------------|-------------------------------------o||
|-7-7-7-7-7-7-15-15-15-15-15-15-|-14-14-14-14-14-14--9--9--9--9--9--9--||
|-------------------------------|--------------------------------------||
|-5-5-5-5-5-5-13-13-13-13-13-13-|-12-12-12-12-12-12--7--7--7--7--7--7-o||
|-------------------------------|--------------------------------------||


   Bridge
    Slower Q=148
    N.C.                                                                3x
||-------------------|------------------|----------|-------------||
||o------------------|------------------|----------|------------o||
||-------------------|------------------|----------|-------------||
||-------------------|------------------|----------|-------------||
||o-5----(5)-7-(7)-8-|-5----(5)-7-(7)-8-|-3--------|-0----3-0-3-o||
||-------------------|------------------|----------|-------------||
|                                                                3x
||-------------------|------------------|----------|-------------||
||o------------------|------------------|----------|------------o||
||-------------------|------------------|----------|-------------||
||--3----(3)-5-(5)-7-|-3----(3)-5-(5)-7-|-2--------|-3----5-3-2--||
||o------------------|------------------|----------|------------o||
||-------------------|------------------|----------|-------------||


  N.C.                                                        Bb5
                                                  9/8
|------------------|------------------|----------|--------------||
|------------------|------------------|----------|--------------||
|------------------|------------------|----------|------------3-||
|------------------|------------------|----------|------------3-||
|-5----(5)-7-(7)-8-|-5----(5)-7-(7)-8-|-3--------|-0----3-0-3-1-||
|------------------|------------------|----------|--------------||
|
|------------------|------------------|----------|--------------||
|------------------|------------------|----------|--------------||
|------------------|------------------|----------|------------3-||
|-3----(3)-5-(5)-7-|-3----(3)-5-(5)-7-|-2--------|-3----5-3-2-3-||
|------------------|------------------|----------|------------1-||
|------------------|------------------|----------|--------------||


 Interlude
  Faster Q=173
                                   C5                                   D5
 4/4
  Gtrs I, II
       PM--------|                          PM--------|
|------------------|-----------------|------------------|-----------------|
|------------------|-----------------|------------------|-----------------|
|-(3)----------3-3-|-3-3-3-3-3-3-3-5-|-(5)----------5-5-|-5-5-5-5-5-5-5---|
|-(3)--3-3-3-3-3-3-|-3-3-3-3-3-3-3-5-|-(5)--5-5-5-5-5-5-|-5-5-5-5-5-5-5-0-|
|-(1)--1-1-1-1-1-1-|-1-1-1-1-1-1-1-3-|-(3)--3-3-3-3-3-3-|-3-3-3-3-3-3-3-0-|
|------------------|-----------------|------------------|---------------0-|


                                           C5
||-------------------|------------------------|
||o------------------|------------------------|
||-------------------|------------------------|
||--(0)--------------|---------------------10-|
||o-(0)--0-0-0-0-0-0-|-0-0-0-0-0-0-0-0-0-0-10-|
||--(0)--0-0-0-0-0-0-|-0-0-0-0-0-0-0-0-0-0-10-|

                   F5            E5 D5
                                       3x
|--------------------|-----------------||
|--------------------|----------------o||
|--------------------|-----------------||
|-(10)--10--10-10--3-|-(3)--3--3-2--0--||
|-(10)--10--10-10--3-|-(3)--3--3-2--0-o||
|-(10)--10--10-10--3-|-(3)--3--3-2--0--||
                                         C5
  Gtr I
|------------------|------------------------|
|------------------|------------------------|
|------------------|------------------------|
|-(0)--------------|---------------------10-|
|-(0)--0-0-0-0-0-0-|-0-0-0-0-0-0-0-0-0-0-10-|
|-(0)--0-0-0-0-0-0-|-0-0-0-0-0-0-0-0-0-0-10-|
|
| Gtr II
|------------------|------------------------|
|------------------|------------------------|
|------------------|------------------------|
|-(0)--------------|---------------------10-|
|-(0)--0-0-0-0-0-0-|-0-0-0-0-0-0-0-0-0-0-10-|
|-(0)--0-0-0-0-0-0-|-0-0-0-0-0-0-0-0-0-0-10-|


                   F5            E5  D5
|--------------------|------------------||
|--------------------|------------------||
|--------------------|------------------||
|-(10)--10--10-10--3-|-(3)--3--3--2--0--||
|-(10)--10--10-10--3-|-(3)--3--3--2--0--||
|-(10)--10--10-10--3-|-(3)--3--3--2--0--||
|
|--------------------|------------------||
|--------------------|-----------/6-----||
|--------------------|---------------7--||
|-(10)--10--10-10--3-|-(3)--3-----------||
|-(10)--10--10-10--3-|-(3)--3-----------||
|-(10)--10--10-10--3-|-(3)--3-----------||


 Guitar Solo
            C5   Bb5           F5  D5          F5D5 C5                F5  D5
|------------------|-----------------|-----------------|--------------------|
|------------------|-----------------|-----------------|--------------------|
|------------------|-----------------|-----------------|--------------------|
|-(0)--0----10---8-|-(8)--8----3---0-|-(0)--0--3-0--10-|-(10)--10-----3---0-|
|-(0)--0----10---8-|-(8)--8----3---0-|-(0)--0--3-0--10-|-(10)--10-----3---0-|
|-(0)--0----10---8-|-(8)--8----3---0-|-(0)--0--3-0--10-|-(10)--10-----3---0-|
|
|------------------|-----------------|-----------------|--------------------|
|---------5----6---|---------5---6-5-|-(5)-------------|---6p5--6p5-6p5-----|
|-(7)------------7-|-(7)-------------|-----------------|----------------6-7-|
|------------------|-----------------|-----------------|--------------------|
|------------------|-----------------|-----------------|--------------------|
|------------------|-----------------|-----------------|--------------------|


            C5   Bb5               C5
|------------------|------------------|
|------------------|------------------|
|------------------|------------------|
|-(0)--0----10---8-|-(8)--8----8---10-|
|-(0)--0----10---8-|-(8)--8----8---10-|
|-(0)--0----10---8-|-(8)--8----8---10-|
|
|------------------|------------------|
|---------5----6---|---------5---6----|
|-(7)------------7-|-(7)------------5-|
|------------------|------------------|
|------------------|------------------|
|------------------|------------------|


                                                     D5
|---------------------------|----------------------------|
|---------------------------|----------------------------|
|---------------------------|----------------------------|
|-(10)-10-10--10-10-10------|-10--10---10---10-10-10--0--|
|-(10)-10-10--10-10-10------|-10--10---10---10-10-10--0--|
|-(10)-10-10--10-10-10------|-10--10---10---10-10-10--0--|
|
|---------------------------|----------------------------|
|----------------------8b10-|-(8)--8p6--8-6--5--6--------|
|--(5)----------------------|----------------------5-[7]-|
|---------------------------|----------------------------|
|---------------------------|----------------------------|
|---------------------------|----------------------------|


           C5   Bb5           F5  D5
|-----------------|-----------------|
|-----------------|-----------------|
|-----------------|-----------------|
|-(0)--0---10---8-|-(8)--8----3---0-|
|-(0)--0---10---8-|-(8)--8----3---0-|
|-(0)--0---10---8-|-(8)--8----3---0-|
|
|-----------------|-----------------|
|-----------5-5-6-|---------5-6-8-6-|
|-(7)-------------|--7--------------|
|-----------------|-----------------|
|-----------------|-----------------|
|-----------------|-----------------|


          F5D5 C5                    F5   D5
|-----------------|------------------------------|
|-----------------|------------------------------|
|-----------------|------------------------------|
|-(0)--0--3-0--10-|-(10)----10--------3---0------|
|-(0)--0--3-0--10-|-(10)----10--------3---0------|
|-(0)--0--3-0--10-|-(10)----10--------3---0------|
|
|-----------------|---8p6p5----------------------|
|-(6)-------------|----------8p6p5-8-10-6-6b8====|
|-----------------|------------------------------|
|-----------------|------------------------------|
|-----------------|------------------------------|
|-----------------|------------------------------|


                 C5   Bb5                       C5
|--------------------------|-----------------------|
|--------------------------|-----------------------|
|--------------------------|-----------------------|
|-(0)------0-----10---8----|-(8)------8-----8---10-|
|-(0)------0-----10---8----|-(8)------8-----8---10-|
|-(0)------0-----10---8----|-(8)------8-----8---10-|
|
|-------------------5------|------------------5----|
|-(6)-(6)r(6)--8------6b8==|=(6)-(6)r(6)--8------6-|
|--------------------------|-----------------------|
|--------------------------|-----------------------|
|--------------------------|-----------------------|
|--------------------------|-----------------------|


                                     F5    D5
|-----------------------|---------------------|
|-----------------------|---------------------|
|-----------------------|---------------------|
|-(10)-10-10--10-10-10--|-10-10-10---3-3-3--0-|
|-(10)-10-10--10-10-10--|-10-10-10---3-3-3--0-|
|-(10)-10-10--10-10-10--|-10-10-10---3-3-3--0-|
|
|-----------------------|---------------------|
|--(6)------------------|--6--5------6-5------|
|-----------------------|--------7-6-----5-/7-|
|-----------------------|---------------------|
|-----------------------|---------------------|
|-----------------------|---------------------|


|------------|------------|------------|--------||
|------------|------------|------------|--------||
|------------|------------|------------|--------||
|-(0)--------|-(0)--------|-(0)--------|-(0)----||
|-(0)--------|-(0)--------|-(0)--------|-(0)----||
|-(0)--------|-(0)--------|-(0)--------|-(0)----||
|
|------------|------------|------------|--------||
|------------|------------|------------|--------||
|-(7)--------|-(7)--------|-(7)--------|-(7)----||
|------------|------------|------------|--------||
|------------|------------|------------|--------||
|------------|------------|------------|--------||

 Breakdown
  D5            F5                    Bb5           C5
  Gtr II
  PM------------------------------------------------------------------|
|-----------------|-----------------|-----------------|-----------------|
|-----------------|-----------------|-----------------|-----------------|
|-----------------|-----------------|-----------------|-----------------|
|-----------------|-----------------|-3-3-3-3-3-3-3-5-|-5-5-5-5-5-5-5-5-|
|-0-0-0-0-0-0-0-3-|-3-3-3-3-3-3-3-3-|-1-1-1-1-1-1-1-3-|-3-3-3-3-3-3-3-3-|
|-0-0-0-0-0-0-0-3-|-3-3-3-3-3-3-3-3-|-----------------|-----------------|
D5            F5
  PM------------------------------------------
|------------------|-------------------------|
|------------------|-------------------------|
|------------------|-------------------------|
|-7-7-7-7-7-7-7-10-|-10-10-10-10-10-10-10-10-|
|-5-5-5-5-5-5-5--8-|--8--8--8--8--8--8--8--8-|
|-0-0-0-0-0-0-0----|-------------------------|


  Bb5           C5
 -----------------------------------------|
|------------------|-------------------------|
|------------------|-------------------------|
|------------------|-------------------------|
|------------------|-------------------------|
|-8-8-8-8-8-8-8-10-|-10-10-10-10-10-10-10-10-|
|-8-8-8-8-8-8-8-10-|-10-10-10-10-10-10-10-10-|


  D5                     F5
  Gtr I
|-------10------------10----|---------10------------10----|
|-13-------13-(13)-------15-|-(15)-------15-(15)-------13-|
|----14------------14-------|------14------------14-------|
|---------------------------|-----------------------------|
|---------------------------|-----------------------------|
|---------------------------|-----------------------------|
|
| Gtr II
|  PM------------------------------------------------------
|---------------------------|-----------------------------|
|---------------------------|-----------------------------|
|---------------------------|-----------------------------|
|---------------------------|-----------------------------|
|--0--0--0--0---0---0--0--3-|---3---3--3--3---3---3--3--3-|
|--0--0--0--0---0---0--0--3-|---3---3--3--3---3---3--3--3-|


  Bb5                      C5
|---------10------------10----|---------10------------10----|
|-(13)-------13-(13)-------15-|-(15)-------15-(15)-------13-|
|------14------------14-------|------14------------14-------|
|-----------------------------|-----------------------------|
|-----------------------------|-----------------------------|
|-----------------------------|-----------------------------|
|
|--------------------------------------------------------|
|-----------------------------|-----------------------------|
|-----------------------------|-----------------------------|
|-----------------------------|-----------------------------|
|---3---3--3--3---3---3--3--5-|---5---5--5--5---5---5--5--5-|
|---1---1--1--1---1---1--1--3-|---3---3--3--3---3---3--3--3-|
|-----------------------------|-----------------------------|


  D5                       F5 
|------------12-(12)-------10-|-(10)----10------------10----|
|-(13)----15------------15----|------------13-(13)-------13-|
|------14------------14-------|------14------------14-------|
|-----------------------------|-----------------------------|
|-----------------------------|-----------------------------|
|-----------------------------|-----------------------------|
|
|   PM-------------------------------------------------------
|-----------------------------|-----------------------------|
|-----------------------------|-----------------------------|
|-----------------------------|-----------------------------|
|---7---7--7--7---7---7--7-10-|--10--10-10-10--10--10-10-10-|
|---5---5--5--5---5---5--5--8-|---8---8--8--8---8---8--8--8-|
|---0---0--0--0---0---0--0----|-----------------------------|


  Bb5                      C5
|---------10------------10----|---------10------------10-(10)-|
|-(13)-------13-(13)-------15-|-(15)-------15-(15)------------|
|------14------------14-------|------14------------14---------|
|-----------------------------|-------------------------------|
|-----------------------------|-------------------------------|
|-----------------------------|-------------------------------|
|
|--------------------------------------------------------|
|-----------------------------|-------------------------------|
|-----------------------------|-------------------------------|
|-----------------------------|-------------------------------|
|-----------------------------|-------------------------------|
|---8---8--8--8---8---8--8-10-|--10--10-10-10--10--10-10--10--|
|---8---8--8--8---8---8--8-10-|--10--10-10-10--10--10-10--10--|


    D5                     F5
||--------10------------10----|---------10------------10----|
||o-13-------13-(13)-------15-|-(15)-------15-(15)-------13-|
||-----14------------14-------|------14------------14-------|
||----------------------------|-----------------------------|
||o---------------------------|-----------------------------|
||----------------------------|-----------------------------|
|
||----------------------------|-----------------------------|
||o---------------------------|-----------------------------|
||----------------------------|-----------------------------|
||---0--0--0--0---0---0--0--3-|--(3)--3--3--3---3---3--3--3-|
||o--0--0--0--0---0---0--0--3-|--(3)--3--3--3---3---3--3--3-|
||---0--0--0--0---0---0--0--3-|--(3)--3--3--3---3---3--3--3-|


  Bb5                      C5
|---------10------------10----|---------10------------10-----|
|-(13)-------13-(13)-------15-|-(15)-------15-(15)-------13--|
|------14------------14-------|------14------------14--------|
|-----------------------------|------------------------------|
|-----------------------------|------------------------------|
|-----------------------------|------------------------------|
|
|-----------------------------|------------------------------|
|-----------------------------|------------------------------|
|---3---3--3--3---3---3--3--5-|--(5)--5--5--5---5---5--5--5--|
|---3---3--3--3---3---3--3--5-|--(5)--5--5--5---5---5--5--5--|
|---1---1--1--1---1---1--1--3-|--(3)--3--3--3---3---3--3--3--|
|-----------------------------|------------------------------|


  D5                       F5
|------------12-(12)-------10-|-(10)----10------------10----|
|-(13)----15------------15----|------------13-(13)-------13-|
|------14------------14-------|------14------------14-------|
|-----------------------------|-----------------------------|
|-----------------------------|-----------------------------|
|-----------------------------|-----------------------------|
|
|-----------------------------|-----------------------------|
|-----------------------------|-----------------------------|
|--------------------------10-|-(10)-10-10-10--10--10-10-10-|
|---7---7--7--7---7---7--7-10-|-(10)-10-10-10--10--10-10-10-|
|---5---5--5--5---5---5--5--8-|--(8)--8--8--8---8---8--8--8-|
|---0---0--0--0---0---0--0----|-----------------------------|
 

  Bb5                      C5
|---------10------------10----|---------10------------10-(10)--||
|-(13)-------13-(13)-------15-|-(15)-------15-(15)------------o||
|------14------------14-------|------14------------14----------||
|-----------------------------|--------------------------------||
|-----------------------------|-------------------------------o||
|-----------------------------|--------------------------------||
|
|-----------------------------|--------------------------------||
|-----------------------------|-------------------------------o||
|-----------------------------|--------------------------------||
|---8---8--8--8---8---8--8-10-|-(10)-10-10-10--10--10-10--10---||
|---8---8--8--8---8---8--8-10-|-(10)-10-10-10--10--10-10--10--o||
|---8---8--8--8---8---8--8-10-|-(10)-10-10-10--10--10-10--10---||


  Bb5                     C5
  Gtrs I, II
|----------|------------|-----------|---------||
|----------|------------|-----------|---------||
|----------|------------|-----------|---------||
|-8--------|-(8)--------|-10--------|-(10)----||
|-8--------|-(8)--------|-10--------|-(10)----||
|-8--------|-(8)--------|-10--------|-(10)----||


   Interlude
    (DmD5            (Em)D5            (F) D5            (A5(Bb(C5)(Bb(A5)
   3/4                                                  5/4
    Gtr I
       PM--------|       PM--------|       PM--------|   TP TP  TP TP TP
||-----------------|-----------------|-----------------|------------------|
||o----------------|-----------------|-----------------|------------------|
||-----------------|-----------------|-----------------|------------------|
||-----------------|-----------------|-----------------|------------------|
||o-5--0-0-0-0-0-0-|--7--0-0-0-0-0-0-|--8--0-0-0-0-0-0-|-0--1---3--1--0---|
||-----0-0-0-0-0-0-|-----0-0-0-0-0-0-|-----0-0-0-0-0-0-|------------------|
|


 
|   Gtr II
|      PM--------|       PM--------|       PM--------|   TP TP  TP TP TP
||-----------------|-----------------|-----------------|------------------|
||o----------------|-----------------|-----------------|------------------|
||-----------------|-----------------|-----------------|------------------|
||-----------------|-----------------|-----------------|------------------|
||o-8--0-0-0-0-0-0-|-10--0-0-0-0-0-0-|-12--0-0-0-0-0-0-|-7--8--10--8--7---|
||-----0-0-0-0-0-0-|-----0-0-0-0-0-0-|-----0-0-0-0-0-0-|------------------|


  (DmD5            (Em)D5            (F) D5            (C5)(Bb(A5)
 3/4
     PM--------|       PM--------|       PM--------|
                                                                   4x
|----------------|-----------------|-----------------|-------------||
|----------------|-----------------|-----------------|------------o||
|----------------|-----------------|-----------------|-------------||
|----------------|-----------------|-----------------|-------------||
|-5--0-0-0-0-0-0-|--7--0-0-0-0-0-0-|--8--0-0-0-0-0-0-|--3--1--0---o||
|----0-0-0-0-0-0-|-----0-0-0-0-0-0-|-----0-0-0-0-0-0-|-------------||
|
|    PM--------|       PM--------|       PM--------|
|                                                                  4x
|----------------|-----------------|-----------------|-------------||
|----------------|-----------------|-----------------|------------o||
|----------------|-----------------|-----------------|-------------||
|----------------|-----------------|-----------------|-------------||
|-8--0-0-0-0-0-0-|-10--0-0-0-0-0-0-|-12--0-0-0-0-0-0-|-10--8--7---o||
|----0-0-0-0-0-0-|-----0-0-0-0-0-0-|-----0-0-0-0-0-0-|-------------||


 Outro
  Slower Q=148
  D5
 4/4
|------------------|--------------------|------------|---------------|
|------------------|--------------------|------------|---------------|
|------------------|--------------------|------------|---------------|
|-0----------------|-(0)----------------|-(0)--------|-(0)-----------|
|-0----------------|-(0)----------------|-(0)--------|-(0)-----------|
|-0----------------|-(0)----------------|-(0)--------|-(0)-----------| 
|
|------------------|--------------------|------------|---------------|
|------------------|--------------------|------------|---------------|
|------------------|--------------------|------------|---------------|
|-3----(3)-5-(5)-7-|--3-----(3)-5-(5)-7-|--2---------|--3-----5-3-2--|
|------------------|--------------------|------------|---------------|
|------------------|--------------------|------------|---------------|


  D5                                    N.C.        N.C.
|------------------|------------------|-----------|--------------|
|------------------|------------------|-----------|--------------|
|------------------|------------------|-----------|--------------|
|-0----------------|------------------|-10--------|-11-----------|
|-0----------------|------------------|--x--------|--x-----------|
|-0----------------|------------------|-10--------|-11-----------|
|
|------------------|------------------|-----------|--------------|
|------------------|------------------|-----------|--------------|
|------------------|------------------|-----------|--------------|
|-3----(3)-5-(5)-7-|-3----(3)-5-(5)-7-|--2--------|--3----5-3-2--|
|------------------|------------------|-----------|--------------|
|------------------|------------------|-----------|--------------|


    N.C.
                                                                  6x
||--------------------|------------------|----------|-------------||
||o-------------------|------------------|----------|------------o||
||--------------------|------------------|----------|-------------||
||--------------------|------------------|----------|-------------||
||o-/5----(5)-7-(7)-8-|-5----(5)-7-(7)-8-|-3--------|-0----3-0-3-o||
||--------------------|------------------|----------|-------------||
|
|                                                                 6x
||--------------------|------------------|----------|-------------||
||o-------------------|------------------|----------|------------o||
||--------------------|------------------|----------|-------------||
||---3----(3)-5-(5)-7-|-3----(3)-5-(5)-7-|-2--------|-3----5-3-2--||
||o-------------------|------------------|----------|------------o||
||--------------------|------------------|----------|-------------||


  N.C.                      D5
|------------|------------|----------|--------*|
|------------|------------|----------|--------*|
|------------|------------|----------|--------*|
|------------|------------|-0--------|-(0)----*|
|-(3)--------|-(3)--------|-0--------|-(0)----*|
|------------|------------|-0--------|-(0)----*|
|
|------------|------------|----------|--------*|
|------------|------------|----------|--------*|
|------------|------------|----------|--------*|
|-(2)--------|-(2)--------|-0--------|-(0)----*|
|------------|------------|-0--------|-(0)----*|
|------------|------------|-0--------|-(0)----*|
                                    
DILATED


Gtr I (C G C F A D) - 'Untitled'
Gtr II (C G C F A D) - 'Untitled'
Gtr III (C G C F A D) - 'Untitled'
Gtr IV (C G C F A D) - 'Untitled'
Gtr V (C G C F A D) - 'Untitled'

 Intro
  Fast Rock Q=194
  D5                N.C.  A5              N.C.  Bb5
 1/8   4/4
  Gtrs I, II
            PM----|               PM----|
|---||----------------------|---------------------|
|---||o---------------------|---------------------|
|---||--------------10-9----|-------------10-9----|
|-0-||--(0)---------------7-|-(7)---------------8-|
|-0-||o-(0)-0-0-0-0--8-7--7-|-(7)-7-7-7-7--8-7--8-|
|-0-||--(0)-0-0-0-0-------7-|-(7)-7-7-7-7-------8-|


              N.C.  G5                F5 D5
      PM----|               PM----|
|---------------------|---------------------||
|---------------------|--------------------o||
|-------------10-9----|---------------------||
|-(8)---------------5-|-(5)---------5-3--0--||
|-(8)-8-8-8-8--8-7--5-|-(5)-5-5-5-5-5-3--0-o||
|-(8)-8-8-8-8-------5-|-(5)-5-5-5-5-5-3--0--||


 Verse
                  A5                  Bb5
|-------------------|-------------------|
|-------------------|-------------------|
|-------------------|-------------------|
|-(0)-0-0-0-0-0-0-7-|-(7)-7-7-7-7-7-7-8-|
|-(0)-0-0-0-0-0-0-7-|-(7)-7-7-7-7-7-7-8-| 
|-(0)-0-0-0-0-0-0-7-|-(7)-7-7-7-7-7-7-8-|


                  G5              F5    D5
|-------------------|---------------------|
|-------------------|---------------------|
|-------------------|---------------------|
|-(8)-8-8-8-8-8-8-5-|-(5)-5-5-5-5-3-(3)-0-|
|-(8)-8-8-8-8-8-8-5-|-(5)-5-5-5-5-3-(3)-0-|
|-(8)-8-8-8-8-8-8-5-|-(5)-5-5-5-5-3-(3)-0-|


                  A5                  Bb5
  Gtr I
|-------------------|-------------------|
|-------------------|-------------------|
|-------------------|-------------------|
|-(0)-0-0-0-0-0-0-7-|-(7)-7-7-7-7-7-7-8-|
|-(0)-0-0-0-0-0-0-7-|-(7)-7-7-7-7-7-7-8-|
|-(0)-0-0-0-0-0-0-7-|-(7)-7-7-7-7-7-7-8-|
|
| Gtr II
|-------------------|-------------------|
|-------------------|-------------------|
|-------------------|-------------------|
|-(0)-0-0-0-0-0-0-7-|-(7)-7-7-7-7-7-7-8-|
|-(0)-0-0-0-0-0-0-7-|-(7)-7-7-7-7-7-7-8-|
|-(0)-0-0-0-0-0-0-7-|-(7)-7-7-7-7-7-7-8-|


                  G5              F5    N.C.
|-------------------|---------------------||
|-------------------|---------------------||
|-------------------|---------------------||
|-(8)-8-8-8-8-8-8-5-|-(5)-5-5-5-5-3-(3)-0-||
|-(8)-8-8-8-8-8-8-5-|-(5)-5-5-5-5-3-(3)---||
|-(8)-8-8-8-8-8-8-5-|-(5)-5-5-5-5-3-(3)---||
|
|-------------------|---------------------||
|-------------------|---------------------||
|-------------------|-------------------7-||
|-(8)-8-8-8-8-8-8-5-|-(5)-5-5-5-5-3-(3)---||
|-(8)-8-8-8-8-8-8-5-|-(5)-5-5-5-5-3-(3)---||
|-(8)-8-8-8-8-8-8-5-|-(5)-5-5-5-5-3-(3)---||


 Bridge
  N.C.
|-----------------|-----------------|-----------------|----------------|
|-----------------|-----------------|-----------------|----------------|
|-----------------|-----------------|-----------------|----------------|
|-(0)-----7-5-3-5-|-(5)-----7-5-3-3-|-(3)-----7-5-3---|--------2h=3--0-|
|-----------------|-----------------|---------------3-|-(3)------------|
|-----------------|-----------------|-----------------|----------------|
|
|-----------------|-----------------|-----------------|----------------|
|-----------------|-----------------|-----------------|----------------|
|-(7)----10-9-7-9-|-(9)----10-9-7---|--------10-9-7---|--------------7-|
|-----------------|---------------8-|-(8)-----------7-|-(7)----7h10----|
|-----------------|-----------------|-----------------|----------------|
|-----------------|-----------------|-----------------|----------------|


  N.C.                                                               D5
|-----------------|-----------------|-----------------|----------------||
|-----------------|-----------------|-----------------|----------------||
|-----------------|-----------------|-----------------|----------------||
|-(0)-----7-5-3-5-|-(5)-----7-5-3-3-|-(3)-----7-5-3---|--------2h=3----||
|-----------------|-----------------|---------------3-|-(3)------------||
|-----------------|-----------------|-----------------|--------------0-||
|
|-----------------|-----------------|-----------------|----------------||
|-----------------|-----------------|-----------------|----------------||
|-(7)----10-9-7-9-|-(9)----10-9-7---|--------10-9-7---|----------------||
|-----------------|---------------8-|-(8)-----------7-|-(7)----7h10--0-||
|-----------------|-----------------|-----------------|--------------0-||
|-----------------|-----------------|-----------------|--------------0-||


 Bridge
      PM------------------------------|
|-------------------|---------------------|
|-------------------|---------------------|
|-------------------|---------------------|
|-------------------|---------------------|
|-------5---3---5---|--8----7---7h8p7-----|
|-(0)-0---0---0---0-|-----0---0-------8-0-|
|
|-------------------|---------------------|
|-------------------|---------------------|
|-------------------|---------------------|
|-(0)---------------|-(0)-----------------|
|-(0)---------------|-(0)-----------------|
|-(0)---------------|-(0)-----------------|


                                           D5
      PM--------------------------------|
|-------------------|--------------------------|
|-------------------|--------------------------|
|-------------------|--------------------------|
|-------------------|--------------------------|
|-------5---3---5---|-13----12---8h10p8--------|
|-(0)-0---0---0---0-|-----0----0--------10-0---|
|
|-------------------|--------------------------|
|-------------------|--------------------------|
|-------------------|--------------------------|
|-(0)---------------|-(0)------------------0---|
|-(0)---------------|-(0)------------------0---|
|-(0)---------------|-(0)------------------0---|


        N.C.                                                  F5            N.C.
      PM----------------------------|         PM----------|
|-------------------|-------------------|-------------------|-----------------||
|-------------------|-------------------|-------------------|-----------------||
|-------------------|-------------------|-------------------|-----------------||
|-------------------|-------------------|-------------------|-3-3-3-3-3-3-3---||
|-------5---3---5---|-8---7---7h8p7-----|-------5---3---5---|-3-3-3-3-3-3-3---||
|-(0)-0---0---0---0-|---0---0-------8-0-|-(0)-0---0---0---0-|-3-3-3-3-3-3-3-0-|| 
|
|-------------------|-------------------|-------------------|-----------------||
|-------------------|-------------------|-------------------|-----------------||
|-------------------|-------------------|-------------------|-----------------||
|-(0)---------------|-------------------|-------------------|-3-3-3-3-3-3-3-0-||
|-(0)---------------|-------------------|-------------------|-3-3-3-3-3-3-3---||
|-(0)---------------|-------------------|-------------------|-3-3-3-3-3-3-3---||


 Interlude
  $
  N.C.
      PM---------------------------------|
|---------------------|-----------------------|
|---------------------|-----------------------|
|---------------------|-----------------------|
|---------------------|-----------------------|
|--------5---3----5---|--8----7---7h=8p7------|
|-(0)-0----0---0----0-|----0----0---------8-0-|
|



|     PM---------------------------------|
|---------------------|-----------------------|
|---------------------|-----------------------|
|-------10---9---10---|-12---10---9h10p9------|
|-(0)-0----0---0----0-|----0----0--------10-0-|
|---------------------|-----------------------|
|---------------------|-----------------------|


      PM-----------------------------------|
|---------------------|---------------------------|
|---------------------|---------------------------|
|---------------------|---------------------------|
|---------------------|---------------------------|
|--------5---3----5---|-13---12----8h10p=8--------|
|-(0)-0----0---0----0-|----0----0----------10-0---|
|
|     PM-----------------------------------|
|---------------------|---------------------------|
|---------------------|---------------------------|
|-------10---9---10---|-15---14---12h14p12-10-----|
|-(0)-0----0---0----0-|----0----0-------------0---|
|---------------------|---------------------------|
|---------------------|---------------------------|


  N.C.                                      G5
      PM---------------------------------|
|---------------------|-----------------------|
|---------------------|-----------------------|
|---------------------|-----------------------|
|---------------------|---------------------5-|
|--------5---3----5---|--8----7---7h=8p7----5-|
|-(0)-0----0---0----0-|----0----0---------8-5-|
|
|     PM---------------------------------|
|---------------------|-----------------------|
|---------------------|-----------------------|
|-------10---9---10---|-12---10---9h10p9------|
|-(0)-0----0---0----0-|----0----0--------10-5-|
|---------------------|---------------------5-|
|---------------------|---------------------5-|
                Bb5                   N.C.
        PM|       PM          PM|       PM
|---------------------|---------------------|
|---------------------|---------------------|
|---------------------|---------------------|
|-(5)-5-----5-(5)---8-|-(8)-8-----8-(8)-----|
|-(5)-5-5-5-5-(5)-5-8-|-(8)-8-8-8-8-(8)-8---|
|-(5)-5-5-5-5-(5)-5-8-|-(8)-8-8-8-8-(8)-8-0-|
|
|       PM|       PM          PM|       PM
|---------------------|---------------------|
|---------------------|---------------------|
|---------------------|---------------------|
|-(5)-5-----5-(5)---8-|-(8)-8-----8-(8)---0-|
|-(5)-5-5-5-5-(5)-5-8-|-(8)-8-8-8-8-(8)-8---|
|-(5)-5-5-5-5-(5)-5-8-|-(8)-8-8-8-8-(8)-8---|


  N.C.
      PM---------------------------------|
|---------------------|-----------------------|
|---------------------|-----------------------|
|---------------------|-----------------------|
|---------------------|-----------------------|
|--------5---3----5---|--8----7---7h=8p7------|
|-(0)-0----0---0----0-|----0----0---------8-0-|
|
|     PM---------------------------------|
|---------------------|-----------------------|
|---------------------|-----------------------|
|-------10---9---10---|-12---10---9h10p9------|
|-(0)-0----0---0----0-|----0----0--------10-0-|
|---------------------|-----------------------|
|---------------------|-----------------------|


      PM-----------------------------------|
|---------------------|---------------------------|
|---------------------|---------------------------|
|---------------------|---------------------------|
|---------------------|---------------------------|
|--------5---3----5---|-13---12----8h10p=8--------|
|-(0)-0----0---0----0-|----0----0----------10-0---|
|
|     PM-----------------------------------|
|---------------------|---------------------------|
|---------------------|---------------------------|
|-------10---9---10---|-15---14---12h14p12-10-----|
|-(0)-0----0---0----0-|----0----0-------------0---|
|---------------------|---------------------------|
|---------------------|---------------------------|


  N.C.                                      G5
      PM---------------------------------|
|---------------------|-----------------------|
|---------------------|-----------------------|
|---------------------|-----------------------|
|---------------------|---------------------5-|
|--------5---3----5---|--8----7---7h=8p7----5-|
|-(0)-0----0---0----0-|----0----0---------8-5-|
|
|     PM---------------------------------|
|---------------------|-----------------------|
|---------------------|-----------------------|
|-------10---9---10---|-12---10---9h10p9------|
|-(0)-0----0---0----0-|----0----0--------10-5-|
|---------------------|---------------------5-|
|---------------------|---------------------5-|


                                   To Coda
                    Bb5
        PM|       PM          PM|
|---------------------|---------------------||
|---------------------|---------------------||
|---------------------|---------------------||
|-(5)-5-----5-(5)---8-|-(8)-8-----8-(8)-8-8-||
|-(5)-5-5-5-5-(5)-5-8-|-(8)-8-8-8-8-(8)-8-8-||
|-(5)-5-5-5-5-(5)-5-8-|-(8)-8-8-8-8-(8)-8-8-||
|
|       PM|       PM          PM|
|---------------------|---------------------||
|---------------------|---------------------||
|---------------------|---------------------||
|-(5)-5-----5-(5)---8-|-(8)-8-----8-(8)-8-8-||
|-(5)-5-5-5-5-(5)-5-8-|-(8)-8-8-8-8-(8)-8-8-||
|-(5)-5-5-5-5-(5)-5-8-|-(8)-8-8-8-8-(8)-8-8-||


 Chorus
  G5  Gsus2                         Bb5 Bbsus2                               D5
  Gtrs I, II
  PM|                               PM|
|---------------|-----------------|-------------------|------------------------|
|---------------|-----------------|-------------------|------------------------|
|---------------|-----------------|-------------------|------------------------|
|-----7---7-7-7-|-7-7-7-7-7-7-7-7-|-----10---10-10-10-|-10-10-10-10-10-10-10-0-|
|-5-5-5---5-5-5-|-5-5-5-5-5-5-5-5-|-8-8--8----8--8--8-|--8--8--8--8--8--8--8-0-|
|-5-5-5---5-5-5-|-5-5-5-5-5-5-5-5-|-8-8--8----8--8--8-|--8--8--8--8--8--8--8-0-|


                                                E5
  Gtr I
|-----------------------|-------------------------|
|-------5-(5)---6-(6)-5-|-(5)-------5-(5)---------|
|-----5-------5---------|-----5-(5)-------5-(5)---|
|-(0)-------------------|-----------------------2-|
|-(0)-------------------|-------------------------|
|-(0)-------------------|-------------------------|
|
| Gtr II
|       PM----------------------------------|
|-----------------------|-------------------------|
|-----------------------|-------------------------|
|-----------------------|-------------------------|
|-(0)-0-----------------|-----------------------2-|
|-(0)-0-0--0--0-0--0--0-|--0--0--0--0--0--0--0--2-|
|-(0)-0-0--0--0-0--0--0-|--0--0--0--0--0--0--0--2-|


                        F5
|-------------------------|-------------------------|
|-----------5-(5)---------|-----------5-(5)---------|
|-----5-(5)-------5-(5)---|-----5-(5)-------5-(5)-5-|
|-(2)-------------------3-|-(3)---------------------|
|-------------------------|-------------------------|
|-------------------------|-------------------------|
|
|        PM---------|              PM---|
|-------------------------|-------------------------|
|-------------------------|-------------------------|
|-------------------------|-------------------------|
|-(2)-2-----------------3-|-(3)-3-----------3--3--3-|
|-(2)-2--2--2--2--2--2--3-|-(3)-3--3--3--3--3--3--3-|
|-(2)-2--2--2--2--2--2--3-|-(3)-3--3--3--3--3--3--3-|


  G5  Gsus2                         Bb5 Bbsus2                               D5
  Gtrs I, II
  PM|                               PM|
|---------------|-----------------|-------------------|------------------------|
|---------------|-----------------|-------------------|------------------------|
|---------------|-----------------|-------------------|------------------------|
|-----7---7-7-7-|-7-7-7-7-7-7-7-7-|-----10---10-10-10-|-10-10-10-10-10-10-10-0-|
|-5-5-5---5-5-5-|-5-5-5-5-5-5-5-5-|-8-8--8----8--8--8-|--8--8--8--8--8--8--8-0-|
|-5-5-5---5-5-5-|-5-5-5-5-5-5-5-5-|-8-8--8----8--8--8-|--8--8--8--8--8--8--8-0-|


                                                                D.S. al Coda
                                    E5                  F5                  D5
        PM------------------------|           PM------|           PM--|
|-------------------|-----------------|-------------------|-------------------||
|-------------------|-----------------|-------------------|-------------------||
|-------------------|-----------------|-------------------|-------------------||
|-(0)-0-------------|---------------2-|-(2)-2-----------3-|-(3)-3-------3-3-0-||
|-(0)-0-0-0-0-0-0-0-|-0-0-0-0-0-0-0-2-|-(2)-2-2-2-2-2-2-3-|-(3)-3-3-3-3-3-3-0-||
|-(0)-0-0-0-0-0-0-0-|-0-0-0-0-0-0-0-2-|-(2)-2-2-2-2-2-2-3-|-(3)-3-3-3-3-3-3-0-||


 Breakdown
  Q=82
  &
  D5
  Gtrs I, II
|----------|--------|
|----------|--------|
|----------|--------|
|-0--------|-(0)----|
|-0--------|-(0)----|
|-0--------|-(0)----|
  D5  N.C.
  Gtr III
|-----------------------------------|----------------------------------|
|-----------------------------------|----------------------------------|
|-------------------------4h5p4-----|----------------------------------|
|---------------5---3-----------5---|---------5-----5---------5--------|
|-----3---5-------------------------|-----3-----3---------3-----3---3--|
|-0-0---0---0-0---0---0-0---------0-|-5-5---5-----5---3-3---3-----3----|
|
| Gtr II
|-----------------------------------|----------------------------------|
|-----------------------------------|----------------------------------|
|-----------------------------------|----------------------------------|
|-0---------------------------------|----------------------------------|
|-0---------------------------------|----------------------------------|
|-0---------------------------------|----------------------------------|


  N.C.
|-----------------------------------|----------------------------------||
|-----------------------------------|----------------------------------||
|-----------------------------------|----------------------------------||
|---------------3---2-----2h3p2-----|---------5-----5---------5--------||
|-----3---5---------------------3p0-|-----3-----3---------3-----3---3--||
|-0-0---0---0-0---0---0-0-----------|-5-5---5-----5---3-3---3-----3----||
|
|-----------------------------------|----------------------------------||
|-----------------------------------|----------------------------------||
|-----------------------------------|----------------------------------||
|-----------------------------------|----------------------------------||
|-----------------------------------|----------------------------------||
|-----------------------------------|----------------------------------||


   Guitar Break
    N.C.
    Gtr III
||--------------------------------------|
||o-------------------------------------|
||----------------------------4h5p4-----|
||----------------5-----3-----------5---|
||o-----3---5---------------------------|
||--0-0---0---0-0----0----0-0---------0-|
|
|   Gtr IV
||--------------------------------------|
||o---------8-----------------8---------|
||------9-----9---9-(9)---9-------9---9-|
||--0-0---0-----0-------0---0-------0---|
||o-------------------------------------|
||--------------------------------------|


|-----------------------------------------------|
|-----------------------------------------------|
|-----------------------------------------------|
|---------5-----------5-----------5-------------|
|-----3------3----------------3------3--------3-|
|-5-5---5----------5-----3--3---3----------3----|
|
|-----------------------------------------------|
|---------5-(5)b6r(5)-------------5-(5)b6r(5)---|
|-----5---------------5-(5)-------------------5-|
|-3---------------------------3-----------------|
|-----------------------------------------------|
|-----------------------------------------------|
  N.C.
|-------------------------------------|
|-------------------------------------|
|-------------------------------------|
|---------------3-----2-----2h3p2-----|
|-----3---5-----------------------3p0-|
|-0-0---0---0-0----0----0-0-----------|
|
|-------------------------------------|
|---------8-----------------8---------|
|-----9-----9---9-(9)---9-------9---9-|
|-0-0---0-----0-------0---0-------0---|
|-------------------------------------|
|-------------------------------------|


                                                  4x
|-------------------------------------------------||
|------------------------------------------------o||
|-------------------------------------------------||
|---------5-----------5-----------5---------------||
|-----3------3----------------3------3--------3--o||
|-5-5---5----------5-----3--3---3----------3------||
|
|                                                 4x
|-------------------------------------------------||
|---------5-(5)b6r(5)-------------5-(5)b6r(5)----o||
|-----5---------------5-(5)-------------------5---||
|-3---------------------------3-------------------||
|------------------------------------------------o||
|-------------------------------------------------||


  4.
  N.C.                                  G5              Bb5
                                        Gtr I
                                          PM--|
|-------------------------------------|----------------------------------||
|-------------------------------------|----------------------------------||
|-------------------------------------|----------------------------------||
|---------------3-----2-----2h3p2-----|-5-------5-5-5-5S8-8-8-8-8-8-8-8--||
|-----3---5-----------------------3p0-|-5-5-5-5-5-5-5-5S8-8-8-8-8-8-8-8--||
|-0-0---0---0-0----0----0-0-----------|-5-5-5-5-5-5-5-5S8-8-8-8-8-8-8-8--||
|
|                                       Gtr II
|                                         PM--|
|-------------------------------------|----------------------------------||
|---------8-----------------8---------|----------------------------------||
|-----9-----9---9-(9)---9-------9---9-|----------------------------------||
|-0-0---0-----0-------0---0-------0---|-5-------5-5-5-5S8-8-8-8-8-8-8-8--||
|-------------------------------------|-5-5-5-5-5-5-5-5S8-8-8-8-8-8-8-8--||
|-------------------------------------|-5-5-5-5-5-5-5-5S8-8-8-8-8-8-8-8--||


 Interlude
  D5                                  G5              F5
  PM----------------------------------------------------------------|
|-----------------------------------|----------------------------------|
|-----------------------------------|----------------------------------|
|-------------------------4h5p4-----|----------------------------------|
|---------------5---3-----------5---|---------5-----5---------5--------|
|-----3---5-------------------------|-----3-----3---------3-----3---3--|
|-0-0---0---0-0---0---0-0---------0-|-5-5---5-----5---3-3---3-----3----|
|
|-----------------------------------|----------------------------------|
|-----------------------------------|----------------------------------|
|-----------------------------------|----------------------------------|
|-0-0-0-0-0-0-0-0-0-0-0-0-0---0-0-0-|-5-5-5-5-5-5-5-5-3-3-3-3-3-3-3-3--|
|-0-0-0-0-0-0-0-0-0-0-0-0-0---0-0-0-|-5-5-5-5-5-5-5-5-3-3-3-3-3-3-3-3--|
|-0-0-0-0-0-0-0-0-0-0-0-0-0---0-0-0-|-5-5-5-5-5-5-5-5-3-3-3-3-3-3-3-3--|


  D5                                  G5              Bb5
  PM----------------------------------------------------------------|
|-----------------------------------|----------------------------------|
|-----------------------------------|----------------------------------|
|-----------------------------------|----------------------------------|
|---------------3---2-----2h3p2-----|---------5-----5---------5--------|
|-----3---5---------------------3p0-|-----3-----3---------3-----3---3--|
|-0-0---0---0-0---0---0-0-----------|-5-5---5-----5---3-3---3-----3----|
|
|-----------------------------------|----------------------------------|
|-----------------------------------|----------------------------------|
|-----------------------------------|----------------------------------|
|-0-0-0-0-0-0-0-0-0-0-0-0-0---0-0-0-|-5-5-5-5-5-5-5-5-8-8-8-8-8-8-8-8--|
|-0-0-0-0-0-0-0-0-0-0-0-0-0---0-0-0-|-5-5-5-5-5-5-5-5-8-8-8-8-8-8-8-8--|
|-0-0-0-0-0-0-0-0-0-0-0-0-0---0-0-0-|-5-5-5-5-5-5-5-5-8-8-8-8-8-8-8-8--|


  D5                                  G5              F5
  PM----------------------------------------------------------------|
|-----------------------------------|----------------------------------|
|-----------------------------------|----------------------------------|
|-------------------------4h5p4-----|----------------------------------|
|---------------5---3-----------5---|---------5-----5---------5--------|
|-----3---5-------------------------|-----3-----3---------3-----3---3--|
|-0-0---0---0-0---0---0-0---------0-|-5-5---5-----5---3-3---3-----3----|
|
| PM----------------------------------------------------------------|
|-----------------------------------|----------------------------------|
|-----------------------------------|----------------------------------|
|-----------------------------------|----------------------------------|
|-----------------------------------|----------------------------------|
|-0-0-0-0-0-0-0-0-0-0-0-0-0---0-0-0-|-5-5-5-5-5-5-5-5-3-3-3-3-3-3-3-3--|
|-0-0-0-0-0-0-0-0-0-0-0-0-0---0-0-0-|-5-5-5-5-5-5-5-5-3-3-3-3-3-3-3-3--|
 D5                                  G5   Bb5 D5
  PM------------------------------|
|-----------------------------------|------------||
|-----------------------------------|------------||
|-----------------------------------|----------7-||
|---------------3---2-----2h3p2-----|-5----8---7-||
|-----3---5---------------------3p0-|-5----8---5-||
|-0-0---0---0-0---0---0-0-----------|-5----8-----||
|
| PM------------------------------|
|-----------------------------------|------------||
|-----------------------------------|------------||
|-----------------------------------|------------||
|-----------------------------------|-5----8---0-||
|-0-0-0-0-0-0-0-0-0-0-0-0-0---0-0-0-|-5----8---0-||
|-0-0-0-0-0-0-0-0-0-0-0-0-0---0-0-0-|-5----8---0-||


  a Tempo Q=194
           N.C.  A5/E         N.C.  Bb5/F
  Gtr I
|------------------|-------------------|
|------------------|-------------------|
|-(7)-7-7--10s9--9-|-(9)-9-9--10s9--10-|
|-(7)-7-7--------7-|-(7)-7-7---------8-|
|-(5)-5-5---8s7--7-|-(7)-7-7---8s7---8-|
|------------------|-------------------|
|
| Gtr II
|------------------|-------------------|
|------------------|-------------------|
|------------------|-------------------|
|-(0)--------------|-(0)---------------|
|-(0)--------------|-(0)---------------|
|-(0)--------------|-(0)---------------|


              N.C.  G5/D           F5/C  D5
|---------------------|--------------------||
|---------------------|--------------------||
|-(10)-10-10--10s9--7-|-(7)-7-7--7s5-(5)-7-||
|--(8)--8--8--------5-|-(5)-5-5--5s3-(3)-7-||
|--(8)--8--8---8s7--5-|-(5)-5-5--5s3-(3)-5-||
|---------------------|--------------------||
|
|---------------------|--------------------||
|---------------------|--------------------||
|---------------------|--------------------||
|--(0)----------------|-(0)--------------0-||
|--(0)----------------|-(0)--------------0-||
|--(0)----------------|-(0)--------------0-||


 Outro/Guitar Solo
  D5             A5                 Bb5
  Gtr I
|------------------|-------------------|
|------------------|-------------------|
|-(7)-7-7--10s9--9-|-(9)-9-9--10s9--10-|
|-(7)-7-7--------7-|-(7)-7-7---------8-|
|-(5)-5-5---8s7--7-|-(7)-7-7---8s7---8-|
|------------------|-------------------|
|
| Gtr II
|------------------|-------------------|
|------------------|-------------------|
|------------------|-------------------|
|-(0)------------7-|-(7)-------------8-|
|-(0)------------7-|-(7)-------------8-|
|-(0)------------7-|-(7)-------------8-|
|

| Gtr V
|------------------|-------------------|
|------------------|-------------------|
|------------------|-------------------|
|------------------|-------------------|
|------------------|-------------------|
|------------------|-------------------|


                    G5                   D5
|---------------------|--------------------|
|---------------------|--------------------|
|-(10)-10-10--10s9--7-|-(7)-7-7--7s5-(5)---|
|--(8)--8--8--------5-|-(5)-5-5--5s3-(3)-0-|
|--(8)--8--8---8s7--5-|-(5)-5-5--5s3-(3)---|
|---------------------|--------------------|
|
|---------------------|--------------------|
|---------------------|--------------------|
|---------------------|--------------------|
|--(8)--------------5-|-(5)--------------0-|
|--(8)--------------5-|-(5)--------------0-|
|--(8)--------------5-|-(5)--------------0-|
|
|---------------------|--------------------|
|---------------------|--------------------|
|---------------------|------------------7-|
|---------------------|--------------------|
|---------------------|--------------------|
|---------------------|--------------------|


                   A5                   Bb5
|--------------------|--------------------|
|--------------------|--------------------|
|--------------------|--------------------|
|-(0)--------7-5-3-5-|-(5)--------7-5-3-3-|
|--------------------|--------------------|
|--------------------|--------------------|
|
|--------------------|--------------------|
|--------------------|--------------------|
|--------------------|--------------------|
|-(0)-0-0-0--0-0-0-7-|-(7)-7-7-7--7-7-7-8-|
|-(0)-0-0-0--0-0-0-7-|-(7)-7-7-7--7-7-7-8-|
|-(0)-0-0-0--0-0-0-7-|-(7)-7-7-7--7-7-7-8-|
|
|--------------------|--------------------|
|--------------------|--------------------|
|-(7)-------10-9-7-9-|-(9)-------10-9-7---|
|--------------------|------------------8-|
|--------------------|--------------------|
|--------------------|--------------------|




                   C5                          D5
|---------------------|--------------------------|
|---------------------|--------------------------|
|---------------------|--------------------------|
|-(3)--------7-5-3----|----------------2h=3----0-|
|-------------------3-|--(3)---------------------|
|---------------------|--------------------------|
|
|---------------------|--------------------------|
|---------------------|--------------------------|
|---------------------|--------------------------|
|-(8)-8-8-8--8-8-8-10-|-(10)-10-10-10-10-10-10-0-|
|-(8)-8-8-8--8-8-8-10-|-(10)-10-10-10-10-10-10-0-|
|-(8)-8-8-8--8-8-8-10-|-(10)-10-10-10-10-10-10-0-|
|
|---------------------|--------------------------|
|---------------------|--------------------------|
|-----------10-9-7----|------------------------7-|
|-(8)---------------7-|--(7)-----------7h10------|
|---------------------|--------------------------|
|---------------------|--------------------------|


                   A5                   Bb5
|--------------------|----------------------|
|--------------------|----------------------|
|--------------------|----------------------|
|-(0)--------7-5-3-5-|-(5)--------7-5-3--/8-|
|--------------------|----------------------|
|--------------------|----------------------|
|
|--------------------|----------------------|
|--------------------|----------------------|
|--------------------|----------------------|
|-(0)-0-0-0--0-0-0-7-|-(7)-7-7-7--7-7-7---8-|
|-(0)-0-0-0--0-0-0-7-|-(7)-7-7-7--7-7-7---8-|
|-(0)-0-0-0--0-0-0-7-|-(7)-7-7-7--7-7-7---8-|
|
|--------------------|----------------------|
|--------------------|----------------------|
|-(7)-------10-9-7-9-|-(9)-------10-9-7-/12-|
|--------------------|----------------------|
|--------------------|----------------------|
|--------------------|----------------------|
              C5                           D5
|-----------------------|--------------------------|
|-----------------------|--------------------------|
|-----------------------|--------------------------|
|--(8)----7---5p3---/10-|-(10)-----8-----7h=8----0-|
|-----------------------|--------------------------|
|-----------------------|--------------------------|
|
|-----------------------|--------------------------|
|-----------------------|--------------------------|
|-----------------------|--------------------------|
|--(8)-8--8-8-8-8-8--10-|-(10)-10-10-10-10-10-10-0-|
|--(8)-8--8-8-8-8-8--10-|-(10)-10-10-10-10-10-10-0-|
|--(8)-8--8-8-8-8-8--10-|-(10)-10-10-10-10-10-10-0-|
|
|-----------------------|--------------------------|
|-----------------------|--------------------------|
|-(12)---10---9p7---/14-|-(14)----12----10h12----7-|
|-----------------------|--------------------------|
|-----------------------|--------------------------|
|-----------------------|--------------------------|


                   A5                   Bb5
|--------------------|--------------------|
|--------------------|--------------------|
|--------------------|--------------------|
|-(0)-------8----7-5-|-(5)-------8----7-3-|
|--------------------|--------------------|
|--------------------|--------------------|
|
|--------------------|--------------------|
|--------------------|--------------------|
|--------------------|--------------------|
|-(0)-0-0-0-0-0--0-7-|-(7)-7-7-7-7-7--7-8-|
|-(0)-0-0-0-0-0--0-7-|-(7)-7-7-7-7-7--7-8-|
|-(0)-0-0-0-0-0--0-7-|-(7)-7-7-7-7-7--7-8-|
|
|--------------------|--------------------|
|--------------------|--------------------|
|-(7)-------9---10-5-|-(5)-------9---10---|
|--------------------|------------------8-|
|--------------------|--------------------|
|--------------------|--------------------|


                   C5                          D5
|---------------------|--------------------------|
|---------------------|
Добавлено: 19.03.2012
Другие материалы по этой песне:
  • Аккорды и текст

Страница создана 19.03.2012
http://primanota.ru/atreyu/suicide-notes-and-butterfly-kisses-album-chords.htm
Привет, Гость.
Предлагаем пройти революционный курс по гитаре.
Подарок от PrimaNota.Ru, забирай!