PrimaNota.ru - самый крупный в мире бесплатный архив песенных текстов, аккордов, табулатур и нот


Atreyu - Stop Before Its Too Late And Weve Destroyed It All - аккорды и текст, таба, видео

Регистрация Запомнить меня
Войти через:  Facebook Google Twitter Vk Yandex Mail.ru

Atreyu - Stop Before Its Too Late And Weve Destroyed It All - аккорды и текст, таба, видео

Печатать
Просмотров: 200
Stop Before Its Too Late And Weve Destroyed It All
Atreyu
Hey this is my first tab so go easy, I wrote this tab based on this video
http://www.youtube.com/watch?v=ryFSEOwFT0o
Email corrections at jack.pearce6@gmail.com

Tuning: Drop C (CGCFAD)

Key:

h - hammer-on
p - pull-off
~ - vibrato
/\/ - wide vibrato
b - bend
TP - Tremolo Pick
. - Palm Mute
\\ - Slide down
() - ghost notes

Intro Solo

D|--13h17p13----13h17p13-13h17p13----13h17p13--------------| x2
A|-----------15-------------------15-----------------------|
F|---------------------------------------------------------|
C|---------------------------------------------------------|
G|---------------------------------------------------------|
C|---------------------------------------------------------|

D|--12h15p12----12h15p12-12h15p12----12h15p12--------------| x2
A|-----------13-------------------13-----------------------|
F|---------------------------------------------------------|
C|---------------------------------------------------------|
G|---------------------------------------------------------|
C|---------------------------------------------------------|

D|--20p15--------------------15h20--|
A|-------17----------------17-------|
F|---------17------------17---------|
C|-----------17--------17-----------|
G|-------------15h19p15-------------|
C|----------------------------------|

D|--15h20p15----15h20p15-15h20p15----15h20p15-15h20p15-----| x2
A|---------------------------------------------------------|
F|---------------------------------------------------------|
C|---------------------------------------------------------|
G|---------------------------------------------------------|
C|---------------------------------------------------------|

D|--22b-22-22-22-20-20h21p20---------|---------|
A|---------------------------20b-----|---------| Repeat intro 
F|-----------------------------------|-19-20~~-|  
Добавлено: 24.07.2013
Другие материалы по этой песне:

Страница создана 08.03.2012
http://primanota.ru/atreyu/stop-before-its-too-late-and-weve-destroyed-it-all-chords.htm
Привет, Гость.
Предлагаем пройти революционный курс по гитаре.
Подарок от PrimaNota.Ru, забирай!