PrimaNota.ru - самый крупный в мире бесплатный архив песенных текстов, аккордов, табулатур и нот


Atreyu - Slow Burn - текст песни, таба, бас-таба, видео

Регистрация Запомнить меня
Войти через:  Facebook Google Twitter Vk Yandex Mail.ru

Atreyu - Slow Burn - текст песни, таба, бас-таба, видео

Печатать
Просмотров: 230
Авторы: Brandon Saller, Alex Varkatzas, Travis Miguel, Dan Jacobs, Marc McKnight

Ok, since there was no tab i decided to make one, i dont exactly have all of the random 
tiny things but i will add more and more, atreyu rox

listen to the song for timings, the tab is just gonna be here for the notes to give you an idea

tabbed by: unrealdonut


Song: Slow Burn
Artist: Atreyu
Album: Lead Sails Paper Anchor

Drop C (C G C F A D)

first riff after piano
-------------------------------------|
-------------------------------------|
-------------------------------------|
-0-2-5--0-2-5--0-2-5--0-2-5-9-10-9-5-|
-0-2-5--0-2-5--0-2-5--0-2-5-9-10-9-5-|
-0-2-5--0-2-5--0-2-5--0-2-5-9-10-9-5-|(x2)

then this is the higher part after
------------------------|
------------------------|
------------------------|
------------------------|
----7-10----------6-9---|
-10-------(x5)---9------|(x5)

--------------------------------------------------------------------------|
--------------------------------------------------------------------------|
--------------------------------------------------------------------------|
-10-10-10--12-12-12--7-7-7--12-12-13--14-14-14-17-17-17-13-13-13-16-16-16-|
-10-10-10--12-12-12--7-7-7--12-12-13--14-14-14-17-17-17-13-13-13-16-16-16-|
-10-10-10--12-12-12--7-7-7--12-12-13--14-14-14-17-17-17-13-13-13-16-16-16-|

---------------------------|
---------------------------|
---------------------------|
-10-10-10--12-12-12--7-7-7-|
-10-10-10--12-12-12--7-7-7-|
-10-10-10--12-12-12--7-7-7-|


then it goes something like this (not totally sure if its right)

-----------------------------------------------|
-----------------------------------------------|
-12--14--16---11-12--16---12--11-9---11-12--14-|
-x---x---x----x--x---x----x---x--x---x--x---x--|
-10--12--14---9--10--14---10--9--7---9--10--12-|
-----------------------------------------------|

then the end is something like this

-------------------------------------|
-------------------------------------|
-------------------------------------|
-0-2-5--0-2-5--0-2-5--0-2-5-9-10-9-5-|
-0-2-5--0-2-5--0-2-5--0-2-5-9-10-9-5-|
-0-2-5--0-2-5--0-2-5--0-2-5-9-10-9-5-|

-----------------------|
-----------------------|
-----------------------|
-0-2-5--0-2-5--0-2-4-5-|
-0-2-5--0-2-5--0-2-4-5-|
-0-2-5--0-2-5--0-2-4-5-|






comment to help add some more parts, I will add some later
Добавлено: 06.03.2012
Другие материалы по этой песне:

Страница создана 06.03.2012
http://primanota.ru/atreyu/slow-burn-chords.htm
Привет, Гость.
Предлагаем пройти революционный курс по гитаре.
Подарок от PrimaNota.Ru, забирай!