PrimaNota.ru - самый крупный в мире бесплатный архив песенных текстов, аккордов, табулатур и нот


Atreyu - Shameful - аккорды и текст, таба, бас-таба, видео

Регистрация Запомнить меня
Войти через:  Facebook Google Twitter Vk Yandex Mail.ru

Atreyu - Shameful - аккорды и текст, таба, бас-таба, видео

Печатать
Просмотров: 254
Shameful
Atreyu
Artist: Atreyu
Song: Shameful
Album: A Death Grip On Yesterday
tuning: One step down

The interlude's a little confusing, but if you know the song it's not hard.

Intro:D5, Bb5, G5

 D5
     You should have ran for days, you embrace, you betray,
 Bb5                     G5
         I'm sick to say, You're a sad cliche,
 D5
    But when you ran you tripped and fell, on a path that led you straight to
 Bb5                                     G5
    hell, This is my salt in your wounds, This is my 'I told you so',
 Dm                           F7M                 Gm7
     If you knew, what I know,     Would you move,   Like you do,
 Dm                                                 F7M  
     With malicious discontent, You went about hell bent, To destroy,
 Gm7
    But did you have a reason why?
 Dm                                           Bbsus2
    Here's to lowering caskets of old friends, Choice and consequence,
 Bbsus2            Csus2                            Gsus2 
  We'll birth a new day with the death of an old and, start over, start over,
 Dm                                              Bbsus2
    Here's to burying hatchets in those who you'd never call your friends,
 Bbsus2            Csus2                            Bbsus2      Gsus2
  We'll birth a new day with the death of an old and, start over, start over,
 Dm            D5        
                Can you breathe in, reach in and let it out, The evil inside,
 Bb5                        G5
     That's eating you out,      tonight,
 D5
    With every venomous move, I will suck you up and spit you,
 Bb5                    G5
     Get out of my life,  Get out of my sight,
 Dm                                           Bbsus2
    Here's to lowering caskets of old friends, Choice and consequence,
 Bbsus2            Csus2                            Gsus2
  We'll birth a new day with the death of an old and, start over, start over,
 Dm                                              Bbsus2
    Here's to burying hatchets in those who you'd never call your friends,
 Bbsus2            Csus2                            Gsus2
  We'll birth a new day with the death of an old and, start over, start over,
 F5                G5                D5             A/C#
   You let yourself get carried away, Don't act like you're ashamed,
 Bb5               C5                D5
   You let yourself get carried away, Bow your head now accept the blame,
 Bb5               C5                D5              A5
   You let yourself get carried away, Bury this with you a waste,
 Bb5                         G5
    And now it's time to see, What you don't mean to
 Dm                      Bb/D           Gsus4  G  Bb/D
  me, Now it's time to see what you don't mean to me,
 D5                     Bb5             C5      Bb5   G5
    Now it's time to see what you don't mean to me,
 Dm                                          Bbsus2
    Here's to lowering caskets of old friends, Choice and consequence,
 Bbsus2
  We'll birth a new day with the death of an old and, start over, start over,
 Dm                                              Bbsus2
    Here's to burying hatchets in those who you'd never call your friends,
 Bbsus2            Csus2                             Bb5        G5
  We'll birth a new day with the death of an old and,

Prechorus part for lead guitar. (See above for rhythm)

 4/4
|-------------------|----------------|----------|---------|
|-10--10--10--10p8--|-10--10--10--10-|-8-8-8-8--|-8-8-8-8-|
|---10--10--10---10-|---10--10--10---|--9-9-9-9-|--9-9-9--|
|-------------------|----------------|----------|---------|
|-------------------|----------------|----------|---------|
|-------------------|----------------|----------|---------|

|----------|
|-5-5-5-5--|
|--5-5-5-5-|
|----------|
|----------| 
|----------| x2

|----------|
|-6-6-6-6--|
|--7-7-7-7-|
|----------|
|----------|
|----------| x2

|-------------------------|-----0-----------------|-----------------|
|-10-------10-------10----|----13------10-10-10-8-|-8-----8-----8---|
|----10----10-10----10-10-|----10-x----10-10-10-9-|-9-----9-----9---|
|-------12-------12-------|-12------12------------|---0-0---0-0---0-|
|-------------------------|-----------------------|-----------------|
|-------------------------|-----------------------|-----------------|

|-----------------|-----------------|-----------------|
|---8-----8-8-8-8-|-5-----5-----5---|---5-----5-----5-|
|---9-----9-9-9-9-|-5-5-5-5-5-5-5-5-|-5-5-5-5-5-5-5-5-|
|-0---0-0---------|-----------------|-----------------|
|-----------------|-----------------|-----------------|
|-----------------|-----------------|-----------------|

|-----------------|---------------------|
|-6-6-6-5-5/10-10-|-10-10-10-10-10-10-8-|
|-7-7-7-5-5/10-10-|-10-10-10-10-10-10-9-|
|-----------------|---------------------|
|-----------------|---------------------|
|-----------------|---------------------|

Please rate and tell me any mistakes.
Добавлено: 29.02.2012
Другие материалы по этой песне:

Страница создана 29.02.2012
http://primanota.ru/atreyu/shameful-chords.htm
Привет, Гость.
Предлагаем пройти революционный курс по гитаре.
Подарок от PrimaNota.Ru, забирай!