PrimaNota.ru - самый крупный в мире бесплатный архив песенных текстов, аккордов, табулатур и нот


Atreyu - Ravenous - таба, бас-таба, видео

Регистрация Запомнить меня
Войти через:  Facebook Google Twitter Vk Yandex Mail.ru

Atreyu - Ravenous - таба, бас-таба, видео

Печатать
Просмотров: 144
-----------------*Ravenous - Atreyu*-------------------                     
Tabbed by: CJ Wilcox

---- I'm sure about the 1st solo. The notes sound right,
 but the positions don't make sense to me. But oh well...

Check out: www.myspace.com/7cj7rocks7
       www.myspace.com/twilightbeforesunrise

Tuning: Drop C (CGCFAD)

INTRO-

Guitar 1:
D|---------------------------------|
A|---------------------------------|
F|--9~-----8~---5~-------9~--------|
C|---------------------------------|
G|---------------------------------|
C|---------------------------------|

Guitar 2:
D|---------------------------------|
A|---------------------------------|
F|---------------------------------|
C|--10~----9~---6~-------10~-------|
G|---------------------------------|
C|---------------------------------|

.............................................................

Guitar 1:
D|-------------------------------------------------------|
A|-------------------------------------------------------|
F|--7p0-0-5--7p0-0-5--7p0-5------------------------------|
C|-------------------------------------------------------|
G|-------------------------------------------------------|
C|-------------------------------------------------------|

Guitar 2:
D|-------------------------------------------------------|
A|-------------------------------------------------------|
F|------------------------------7p0-0-5--7p0-0-5--7p0-5--|
C|-------------------------------------------------------|
G|-------------------------------------------------------|
C|-------------------------------------------------------|

..............................................................

Guitar 1:
D|-------------------------------------------------------|
A|-------------------------------------------------------|
F|--7p0-0-5--7p0-0-5--7p0-5--7p0-0-5--7p0-0-5--7p0-5-----|
C|-------------------------------------------------------|
G|-------------------------------------------------------|
C|-------------------------------------------------------|

Guitar 3:
D|-------------------------------------------------------|
A|-------------------------------------------------------|
F|-------------------------------------------------------|
C|--7--7--7-7-7--7--7-7-7----7--7--7-7-7--7--7-7-7-------|
G|--7--7--7-7-7--7--7-7-7----7--7--7-7-7--7--7-7-7-------|
C|--7--7--7-7-7--7--7-7-7----7--7--7-7-7--7--7-7-7-------|

..............................................................

Guitar 1:
D|-------------------------------------------------------|
A|-15p10h13p10h16p10h13p10-15p10h13p10h16p10h13p10-------|
F|-------------------------------------------------------|
C|-------------------------------------------------------|
G|-------------------------------------------------------|
C|-------------------------------------------------------|

Guitar 3:
D|-------------------------------------------------------|
A|-------------------------------------------------------|
F|-------------------------------------------------------|
C|---6-----6-----6--6--6----6-----6---6---6--------------|
G|---6-----6-----6--6--6----6-----6---6---6--------------|
C|---6-----6-----6--6--6----6-----6---6---6--------------|

..............................................................

Guitar 1:
D|-------------------------------------------------------|
A|---16----------12----------13----------10--------------|
F|---17----------13----------14----------10--------------|
C|-------------------------------------------------------|
G|-------------------------------------------------------|
C|-------------------------------------------------------|
         (2 Guitars, tremolo picking)

Guitar 3:
D|-------------------------------------------------------|
A|-------------------------------------------------------|
F|-------------------------------------------------------|
C|---3-----3-----3--3--3----3-----3---3---3--------------|
G|---3-----3-----3--3--3----3-----3---3---3--------------|
C|---3-----3-----3--3--3----3-----3---3---3--------------|

..............................................................

Guitar 1:
D|-------------------------------------------------------|
A|--9h10p9h10h12p10p9h10p9h10h12p10p9h10h12--------------|
F|-------------------------------------------------------|
C|-------------------------------------------------------|
G|-------------------------------------------------------|
C|-------------------------------------------------------|

Guitar 3:
D|-------------------------------------------------------|
A|-------------------------------------------------------|
F|-------------------------------------------------------|
C|--7-----7-----7--7--7----7-----7---7---7---------------|
G|--7-----7-----7--7--7----7-----7---7---7---------------|
C|--7-----7-----7--7--7----7-----7---7---7---------------|

...............................................................

Guitar 1:
D|-------------------------------------------------------|
A|--10h13p10h13h16p13p10h13p10h13h16p13p10h13h16---------|
F|-------------------------------------------------------|
C|-------------------------------------------------------|
G|-------------------------------------------------------|
C|-------------------------------------------------------|

Guitar 3:
D|-------------------------------------------------------|
A|-------------------------------------------------------|
F|-------------------------------------------------------|
C|--7-----7-----7--7--7----7-----7---7---7---------------|
G|--7-----7-----7--7--7----7-----7---7---7---------------|
C|--7-----7-----7--7--7----7-----7---7---7---------------|

...............................................................

Guitar 1:
D|--17-17-13p10h13p10-17-17-13p10h13p10-17-17-13p10------|
A|-------------------------------------------------------|
F|-------------------------------------------------------|
C|-------------------------------------------------------|
G|-------------------------------------------------------|
C|-------------------------------------------------------|
  (Listen to song for rhythm, it's very hard to explain. 
       You are tapping the 17's quickly w/ your pick) 

Guitar 3:
D|-------------------------------------------------------|
A|-------------------------------------------------------|
F|-------------------------------------------------------|
C|---6-----6-----6--6--6----6-----6---6---6--------------|
G|---6-----6-----6--6--6----6-----6---6---6--------------|
C|---6-----6-----6--6--6----6-----6---6---6--------------|

...............................................................

Guitar 1:
D|--13-13-13p10h13p10-13-13-13p10h13p10-13-13-13p10------|
A|-------------------------------------------------------|
F|-------------------------------------------------------|
C|-------------------------------------------------------|
G|-------------------------------------------------------|
C|-------------------------------------------------------|
           (Same rhythm as previous)

Guitar 3:
D|-------------------------------------------------------|
A|-------------------------------------------------------|
F|-------------------------------------------------------|
C|---3-----3-----3--3--3----3-----3---3---3--------------|
G|---3-----3-----3--3--3----3-----3---3---3--------------|
C|---3-----3-----3--3--3----3-----3---3---3--------------|

VERSE 1-

Play Twice... 

Guitar 1:
D|-------------------------------------------------------|
A|-------------------------------------------------------|
F|--9~---------------------------------------------------|
C|-------------------------------------------------------|
G|-------------------------------------------------------|
C|-------------------------------------------------------|

Guitar 2:
D|-------------------------------------------------------|
A|-------------------------------------------------------|
F|-------------------------------------------------------|
C|--10~--------------------------------------------------|
G|-------------------------------------------------------|
C|-------------------------------------------------------|

Guitar 3:
D|-------------------------------------------------------|
A|-------------------------------------------------------|
F|-------------------------------------------------------|
C|--7--7--7-7-7--7--7-7-7----7--7--7-7-7--7--7-7-7-------|
G|--7--7--7-7-7--7--7-7-7----7--7--7-7-7--7--7-7-7-------|
C|--7--7--7-7-7--7--7-7-7----7--7--7-7-7--7--7-7-7-------|

.............................................................

Guitar 1:
D|-------------------------------------------------------|
A|-------------------------------------------------------|
F|---8~----------------------5~--------------------------|      
C|-------------------------------------------------------|
G|-------------------------------------------------------|
C|-------------------------------------------------------|

Guitar 2:
D|-------------------------------------------------------|
A|-------------------------------------------------------|
F|-------------------------------------------------------|
C|---9~-----------------------6~-------------------------|
G|-------------------------------------------------------|
C|-------------------------------------------------------|

Guitar 3:
D|-------------------------------------------------------|
A|-------------------------------------------------------|
F|-------------------------------------------------------|
C|---6--6--6-6-6--6--6-6-6----3--3--3-3-3--3--3-3-3------|
G|---6--6--6-6-6--6--6-6-6----3--3--3-3-3--3--3-3-3------|
C|---6--6--6-6-6--6--6-6-6----3--3--3-3-3--3--3-3-3------|

..............................................................

PRECHORUS-

Guitar 3:
D|-------------------------------------------------|
A|-------------------------------------------------|
F|-------------------------------------------------|
C|--2--2--2-2--2--2--2-2--2--2--2-2--2--2--5-------|
G|--2--2--2-2--2--2--2-2--2--2--2-2--2--2--5-------|
C|--2--2--2-2--2--2--2-2--2--2--2-2--2--2--5-------|

CHORUS-

Guitar 1:
D|-----------------------------------------|
A|-----------------------------------------|
F|--14--16--17-------14--16--17------------|      
C|--x---x---x--------x---x---x-------------|
G|--12--14--15-------12--14--15------------|
C|-----------------------------------------|

Guitar 3:
D|-----------------------------------------|
A|-----------------------------------------|
F|--7-7-7--7--7--7---7-7-7--7--7--7--------|
C|--7-7-7--7--7--7---7-7-7--7--7--7--------|
G|--5-5-5--5--5--5---5-5-5--5--5--5--------|
C|-----------------------------------------|

.................................................

Guitar 1:
D|-----------------------------------------|
A|-----------------------------------------|
F|--12---10--11--------10--12--12-----------|      
C|--x----x---x---------x---x---x------------|
G|--10---8---9---------8---10--10-----------|
C|-----------------------------------------|

Guitar 3:
D|-----------------------------------------|
A|-----------------------------------------|
F|-----------------------------------------|
C|--7-7-7--7--7--7---7-7-7--7--7--7--------|
G|--7-7-7--7--7--7---7-7-7--7--7--7--------|
C|--7-7-7--7--7--7---7-7-7--7--7--7--------|

.................................................

Guitar 1:
D|-----------------------------------------|
A|-----------------------------------------|
F|--14--16--17-------14--16--17------------|      
C|--x---x---x--------x---x---x-------------|
G|--12--14--15-------12--14--15------------|
C|-----------------------------------------|

Guitar 3:
D|-----------------------------------------|
A|-----------------------------------------|
F|--5-5-5--5--5--5---5-5-5--5--5--5--------|
C|--5-5-5--5--5--5---5-5-5--5--5--5--------|
G|--3-3-3--3--3--3---3-3-3--3--3--3--------|
C|-----------------------------------------|

.................................................

Guitar 1:
D|-----------------------------------------|
A|-----------------------------------------|
F|-----10------------16-----14-------------|      
C|-----x-------------x------x--------------|
G|-----8-------------14-----12-------------|
C|-----------------------------------------|

Guitar 3:
D|-----------------------------------------|
A|-----------------------------------------|
F|-----------------------------------------|
C|--5-5-5--5--5--5---5-5-5--5--5--5--------|
G|--5-5-5--5--5--5---5-5-5--5--5--5--------|
C|--5-5-5--5--5--5---5-5-5--5--5--5--------|

.................................................

SOLO 1-

Guitar 1:
D|-------------------------15b---15---15b----------|
A|-------------------------------------------------|
F|--12b---12---12b---------------------------------|      
C|-------------------------------------------------|
G|-------------------------------------------------|
C|-------------------------------------------------|

Guitar 3:
D|-------------------------------------------------|
A|-------------------------------------------------|
F|-------------------------------------------------|
C|--7-----7-----7--7--7----7-----7---7---7---------|
G|--7-----7-----7--7--7----7-----7---7---7---------|
C|--7-----7-----7--7--7----7-----7---7---7---------|

..........................................................

Guitar 1:
D|-------------------------------------------------|
A|----12h13p12--12h13p12--12h13p12--12h13p12-------|
F|--14--------14--------14--------14---------------|      
C|-------------------------------------------------|
G|-------------------------------------------------|
C|-------------------------------------------------|

Guitar 3:
D|-------------------------------------------------|
A|-------------------------------------------------|
F|-------------------------------------------------|
C|--7-----7-----7--7--7----7-----7---7---7---------|
G|--7-----7-----7--7--7----7-----7---7---7---------|
C|--7-----7-----7--7--7----7-----7---7---7---------|

..........................................................

D|-------------------------------------------------------|
A|------12h13p12-----------------------------------------|
F|---14----------14p12h14p12\9h12p9\7h9p7\5h7p5\4h5p4----|      
C|-------------------------------------------------------|
G|-------------------------------------------------------|
C|-------------------------------------------------------|


Guitar 3:
D|-------------------------------------------------------|
A|-------------------------------------------------------|
F|-------------------------------------------------------|
C|---6--6--6-6-6--6--6-6-6----3--3--3-3-3--3--3-3-3------|
G|---6--6--6-6-6--6--6-6-6----3--3--3-3-3--3--3-3-3------|
C|---6--6--6-6-6--6--6-6-6----3--3--3-3-3--3--3-3-3------|

............................................................

Guitar 1:
D|-------------------------------------------------|
A|-------------------------------------4-----------|
F|----------------7b-------------------6b~---------|      
C|-------------------------------------------------|
G|---0--3b-(3)p0-------------2b-(2)p0--------------|
C|-------------------------------------------------|

Guitar 3:
D|-------------------------------------------------|
A|-------------------------------------------------|
F|-------------------------------------------------|
C|--7-----7-----7--7--7----7-----7---7---7---------|
G|--7-----7-----7--7--7----7-----7---7---7---------|
C|--7-----7-----7--7--7----7-----7---7---7---------|

.........................................................

Guitar 1:
D|-------------------------------------------------------|
A|---------11-11---10-10---9-9----8-8---7-7---6-6---5\---|
F|------9-9-----9-9-----8-8----7-7---6-6---5-5---4-4-----|      
C|-------------------------------------------------------|
G|-------------------------------------------------------|
C|-------------------------------------------------------|

Guitar 3:
D|-------------------------------------------------------|
A|-------------------------------------------------------|
F|-------------------------------------------------------|
C|---6--6--6-6-6--6--6-6-6----3--3--3-3-3--3--3-3-3------|
G|---6--6--6-6-6--6--6-6-6----3--3--3-3-3--3--3-3-3------|
C|---6--6--6-6-6--6--6-6-6----3--3--3-3-3--3--3-3-3------|

          VERSE 2-

          PRECHORUS-

          CHORUS- X2

BRIDGE-

Guitar 1:
D|------------------------------------|
A|------------------------------------|
F|----10-10--99-----10-10--99---------|      
C|------------------------------------|
G|------------------------------------|
C|------------------------------------|

Guitar 3:
D|------------------------------------|
A|------------------------------------|
F|------------------------------------|
C|---3-3-3-3-3-3-3-3-3-3-3-3-3-3-3-3--|
G|---3-3-3-3-3-3-3-3-3-3-3-3-3-3-3-3--|
C|---3-3-3-3-3-3-3-3-3-3-3-3-3-3-3-3--|

...........................................

Guitar 1:
D|------------------------------------|
A|------------------------------------|
F|----10-10--99-----10-10--99---------|      
C|------------------------------------|
G|------------------------------------|
C|------------------------------------|

Guitar 3:
D|------------------------------------|
A|------------------------------------|
F|------------------------------------|      
C|---0-0-0-0-0-0-0-0-0-0-0-0-0-0-0-0--|
G|---0-0-0-0-0-0-0-0-0-0-0-0-0-0-0-0--|
C|---0-0-0-0-0-0-0-0-0-0-0-0-0-0-0-0--|

............................................

Guitar 1:
D|------------------------------------|
A|------------------------------------|
F|----9-9--55------9-9--55------------|      
C|------------------------------------|
G|------------------------------------|
C|------------------------------------|

Guitar 3:
D|------------------------------------|
A|------------------------------------|
F|------------------------------------|      
C|---7-7-7-7-7-7-7-7-7-7-7-7-7-7-7-7--|
G|---7-7-7-7-7-7-7-7-7-7-7-7-7-7-7-7--|
C|---7-7-7-7-7-7-7-7-7-7-7-7-7-7-7-7--|

............................................

Guitar 1:
D|------------------------------------|
A|------------------------------------|
F|----9-9--55------9-9--55------------|      
C|------------------------------------|
G|------------------------------------|
C|------------------------------------|

Guitar 3:
D|------------------------------------|
A|------------------------------------|
F|------------------------------------|      
C|---6-6-6-6-6-6-6-6-6-6-6-6-6-6-6-6--|
G|---6-6-6-6-6-6-6-6-6-6-6-6-6-6-6-6--|
C|---6-6-6-6-6-6-6-6-6-6-6-6-6-6-6-6--|

...........................................

Guitar 1:
D|------------------------------------|
A|------------------------------------|
F|----10-10--99-----10-10--99---------|      
C|------------------------------------|
G|------------------------------------|
C|------------------------------------|

Guitar 3:
D|------------------------------------|
A|------------------------------------|
F|------------------------------------|
C|---3-3-3-3-3-3-3-3-3-3-3-3-3-3-3-3--|
G|---3-3-3-3-3-3-3-3-3-3-3-3-3-3-3-3--|
C|---3-3-3-3-3-3-3-3-3-3-3-3-3-3-3-3--|

...........................................

Guitar 1:
D|------------------------------------|
A|------------------------------------|
F|----10-10--99-----10-10--99---------|      
C|------------------------------------|
G|------------------------------------|
C|------------------------------------|

Guitar 3:
D|------------------------------------|
A|------------------------------------|
F|------------------------------------|      
C|---0-0-0-0-0-0-0-0-0-0-0-0-0-0-0-0--|
G|---0-0-0-0-0-0-0-0-0-0-0-0-0-0-0-0--|
C|---0-0-0-0-0-0-0-0-0-0-0-0-0-0-0-0--|

............................................

Guitar 1:
D|------------------------------------|
A|------------------------------------|
F|----9-9--55------9-9--55------------|      
C|------------------------------------|
G|------------------------------------|
C|------------------------------------|

Guitar 3:
D|------------------------------------|
A|------------------------------------|
F|------------------------------------|      
C|---7-7-7-7-7-7-7-7-7-7-7-7-7-7-7-7--|
G|---7-7-7-7-7-7-7-7-7-7-7-7-7-7-7-7--|
C|---7-7-7-7-7-7-7-7-7-7-7-7-7-7-7-7--|

............................................

Guitar 1:
D|------------------------------------|
A|------------------------------------|
F|----9-9--55------9-9--55------------|      
C|------------------------------------|
G|------------------------------------|
C|------------------------------------|

Guitar 3:
D|------------------------------------|
A|------------------------------------|
F|------------------------------------|      
C|---6-6-6-6-6-6-6-6-6-6-6-6-6-6-6-6--|
G|---6-6-6-6-6-6-6-6-6-6-6-6-6-6-6-6--|
C|---6-6-6-6-6-6-6-6-6-6-6-6-6-6-6-6--|

.............................................

Guitar 1:
D|-----10-12-13-13--1212--13-13--1212-|
A|-10-12------------------------------|
F|------------------------------------|      
C|------------------------------------|
G|------------------------------------|
C|------------------------------------|

Guitar 2:
D|------------------------------------|
A|-----------10-10--88----10-10--88---|
F|------------------------------------|      
C|------------------------------------|
G|------------------------------------|
C|------------------------------------|

Guitar 3:
D|------------------------------------|
A|------------------------------------|
F|------------------------------------|
C|---3-3-3-3-3-3-3-3-3-3-3-3-3-3-3-3--|
G|---3-3-3-3-3-3-3-3-3-3-3-3-3-3-3-3--|
C|---3-3-3-3-3-3-3-3-3-3-3-3-3-3-3-3--|

...........................................

Guitar 1:
D|----13-13--1212----13-13-1212-------|
A|------------------------------------|
F|------------------------------------|      
C|------------------------------------|
G|------------------------------------|
C|------------------------------------|

Guitar 2:
D|------------------------------------|
A|----10-10---88-----10-10---88-------|
F|------------------------------------|      
C|------------------------------------|
G|------------------------------------|
C|------------------------------------|

Guitar 3:
D|------------------------------------|
A|------------------------------------|
F|------------------------------------|      
C|---0-0-0-0-0-0-0-0-0-0-0-0-0-0-0-0--|
G|---0-0-0-0-0-0-0-0-0-0-0-0-0-0-0-0--|
C|---0-0-0-0-0-0-0-0-0-0-0-0-0-0-0-0--|

............................................

Guitar 1:
D|----12-12--88-----12-12--88---------|
A|------------------------------------|
F|------------------------------------|      
C|------------------------------------|
G|------------------------------------|
C|------------------------------------|

Guitar 2:
D|------------------------------------|
A|----8--8---55-----8--8---55---------|
F|------------------------------------|      
C|------------------------------------|
G|------------------------------------|
C|------------------------------------|

Guitar 3:
D|------------------------------------|
A|------------------------------------|
F|------------------------------------|      
C|---7-7-7-7-7-7-7-7-7-7-7-7-7-7-7-7--|
G|---7-7-7-7-7-7-7-7-7-7-7-7-7-7-7-7--|
C|---7-7-7-7-7-7-7-7-7-7-7-7-7-7-7-7--|

............................................

Guitar 1:
D|----12-12--88-----12-12--88---------|
A|------------------------------------|
F|------------------------------------|      
C|------------------------------------|
G|------------------------------------|
C|------------------------------------|

Guitar 2:
D|------------------------------------|
A|----8--8---55-----8--8---55---------|
F|------------------------------------|      
C|------------------------------------|
G|------------------------------------|
C|------------------------------------|

Guitar 3:
D|------------------------------------|
A|------------------------------------|
F|------------------------------------|      
C|---6-6-6-6-6-6-6-6-6-6-6-6-6-6-6-6--|
G|---6-6-6-6-6-6-6-6-6-6-6-6-6-6-6-6--|
C|---6-6-6-6-6-6-6-6-6-6-6-6-6-6-6-6--|

............................................

Guitar 1:
D|----13-13--1212----13-13-1212-------|
A|------------------------------------|
F|------------------------------------|      
C|------------------------------------|
G|------------------------------------|
C|------------------------------------|

Guitar 2:
D|------------------------------------|
A|----10-10---88-----10-10---88-------|
F|------------------------------------|      
C|------------------------------------|
G|------------------------------------|
C|------------------------------------|

Guitar 3:
D|------------------------------------|
A|------------------------------------|
F|------------------------------------|
C|---3-3-3-3-3-3-3-3-3-3-3-3-3-3-3-3--|
G|---3-3-3-3-3-3-3-3-3-3-3-3-3-3-3-3--|
C|---3-3-3-3-3-3-3-3-3-3-3-3-3-3-3-3--|

.............................................

Guitar 1:
D|----13-13--1212----13-13-1212-------|
A|------------------------------------|
F|------------------------------------|      
C|------------------------------------|
G|------------------------------------|
C|------------------------------------|

Guitar 2:
D|------------------------------------|
A|----10-10---88-----10-10---88-------|
F|------------------------------------|      
C|------------------------------------|
G|------------------------------------|
C|------------------------------------|

Guitar 3:
D|------------------------------------|
A|------------------------------------|
F|------------------------------------|
C|---5-5-5-5-5-5-5-5-5-5-5-5-5-5-5-5--|
G|---5-5-5-5-5-5-5-5-5-5-5-5-5-5-5-5--|
C|---5-5-5-5-5-5-5-5-5-5-5-5-5-5-5-5--|

..................................................

Guitar 2:
D|--12--------14---------15---------17---------22b-|
A|-------------------------------------------------|
F|-------------------------------------------------|      
C|-------------------------------------------------|
G|-------------------------------------------------|
C|-------------------------------------------------|

Guitar 3:
D|-------------------------------------------------|
A|-------------------------------------------------|
F|-------------------------------------------------|
C|--2--2--2-2--2--2--2-2--2--2--2-2--2--2--5-------|
G|--2--2--2-2--2--2--2-2--2--2--2-2--2--2--5-------|
C|--2--2--2-2--2--2--2-2--2--2--2-2--2--2--5-------|

CHORUS- X2

OUTRO-

Guitar 1:
D|-------------------------------|
A|-------------------------------|
F|---14-----16------17-----19----|
C|---x------x-------x------x-----|
G|---12-----14------15-----17----|
C|-------------------------------|

Guitar 3:
D|-------------------------------|
A|-------------------------------|
F|-------------------------------|
C|---5-5-5--5-5-5--5-5-5--5-5-5--|
G|---5-5-5--5-5-5--5-5-5--5-5-5--|
C|---5-5-5--5-5-5--5-5-5--5-5-5--|

.........................................

Guitar 1:
D|-------------------------------------------------|
A|-------------------------------------------------|
F|-21\---------------------------------------------|
C|-x-----------------------------------------------|
G|-19\---------------------------------------------|
C|-------------------------------------------------|

Guitar 3:
D|-------------------------------------------------|
A|-------------------------------------------------|
F|-------------------------------------------------|
C|--2--2--2-2--2--2--2-2--2--2--2-2--2--2--5----7\-|
G|--2--2--2-2--2--2--2-2--2--2--2-2--2--2--5----7\-|
C|--2--2--2-2--2--2--2-2--2--2--2-2--2--2--5----7\-|

RATE AND COMMENT!

| /  slide up
| \  slide down
| h  hammer-on
| p  pull-off
| ~  vibrato
| +  harmonic
| x  Mute note
===============================================================================
Добавлено: 10.06.2012
Другие материалы по этой песне:

Страница создана 18.04.2012
http://primanota.ru/atreyu/ravenous-chords.htm
Привет, Гость.
Предлагаем пройти революционный курс по гитаре.
Подарок от PrimaNota.Ru, забирай!