PrimaNota.ru - самый крупный в мире бесплатный архив песенных текстов, аккордов, табулатур и нот


Atreyu - Our Sick Story Thus Far - текст песни, таба, видео

Регистрация Запомнить меня
Войти через:  Facebook Google Twitter Vk Yandex Mail.ru

Atreyu - Our Sick Story Thus Far - текст песни, таба, видео

Печатать
Просмотров: 174
Уроки эстрадного вокала в Санкт-Петербурге
Title: Our Sick Story Thus Far (Solo)
Artist: Atreyu
Album: A Deathgrip On Yesterday

Notes:
b = bend r = release bend
* = pinch harmonic
. = palm mute
p = pull off
~ = sustain note
/ = slide
h = hammer on

Alright, so I'm not completely sure of all of this and the form isn't the best because I 
figured it out and wrote it in about ten-twenty minutes, but it's all there and the 
parts I'm really
very doubtful at all about are the part where the palm mute lets off and the part at the 
end.  Other than that, it's all right!

D |----------------|-----------------|-----------------|----------------||
A |----------------|-----------------|-----------------|----------------||
F |---------10*----|-----------------|-------------1014|15-1514p1214~-15||
C |10b-12108---1513|12131210121087810|3577810121415----|----------------||
G |----------------|-----------------|-----------------|----------------||
C |----------------|-----------------|-----------------|----------------||
               .... .............

D |----------------|----------------|----------------|----------------||
A |----------------|----------------|----------------|----------------||
F |171919p17p15/14/|15~-141414151515|1717171515151717|1719191920202019||
C |----------------|----------------|----------------|----------------||
G |----------------|----------------|----------------|----------------||
C |----------------|----------------|----------------|----------------||

D |-----15B(17)r15b|(17)------------|------------13--|18----------20--||
A |----------------|----13h15p13-11h|13p110h11h13----|--18------18--18||
F |1919------------|----------------|----------------|----201920------||
C |----------------|----------------|----------------|----------------||
G |----------------|----------------|----------------|----------------||
C |----------------|----------------|----------------|----------------||

D |--------18------|----20----------|18----17----20--|--18b(20)r18----||
A |------18--18----|--18--18--------|--1515--1515--15|15--------------||
F |201920------2019|20------2019~---|----------------|----------------||
C |----------------|----------------|----------------|----------------||
G |----------------|----------------|----------------|--------------12||
C |----------------|----------------|----------------|----------------||

D |----------------|----121415171517|20172022~/------||
A |----------------|1315------------|----------------||
F |----------121415|----------------|----------------||
C |----121415------|----------------|----------------||
G |1415------------|----------------|----------------||
C |----------------|----------------|----------------||
Добавлено: 31.07.2012
Другие материалы по этой песне:

Страница создана 25.02.2012
http://primanota.ru/atreyu/our-sick-story-thus-far-chords.htm
Привет, Гость.
Предлагаем пройти революционный курс по гитаре.
Подарок от PrimaNota.Ru, забирай!