PrimaNota.ru - самый крупный в мире бесплатный архив песенных текстов, аккордов, табулатур и нот


Atreyu - Never Too Far Gone - текст песни, таба, видео

Регистрация Запомнить меня
Войти через:  Facebook Google Twitter Vk Yandex Mail.ru

Atreyu - Never Too Far Gone - текст песни, таба, видео

Печатать
Просмотров: 146
Band: Atreyu
Somng: Never Too Far Gone
Album: Visions (1995)
Tuning: Drop D

Intro

-----------------------------|
B----------------------------|
G----------------------------|
D-0-0-x3-3333--8-8-x7-7777---|
A-0-0-x3-3333--8-8-x7-7777---|
D-0-0-x3-3333--8-8-x7-7777---|

E----------------------------|
B----------------------------|
G----------------------------|
D-0-0-x3-3333--8-x7-x3-3333--|
A-0-0-x3-3333--8-x7-x3-3333--|
D-0-0-x3-3333--8-x7-x3-3333--|

Intro 2/Chorus
E---------------------------------|
B---------------------------------|
G---------------------------------|
D-00000-33333-88888-77777---------|
A-00000-33333-88888-77777---------|
D-00000-33333-88888-77777---------|

E---------------------------------|
B---------------------------------|
G---------------------------------|
D-00000-33333--8-7-33333----------|
A-00000-33333--8-7-33333----------|
D-00000-33333--8-7-33333----------|

E---------------------------------|
B---------------------------------|
G---------------------------------|
D-00000-33333-7-x8-77777----------|
A-00000-33333-7-x8-77777----------|
D-00000-33333-7-x8-77777----------|

E---------------------------------|
B---------------------------------|
G---------------------------------|
D-00000-33333--8-7-33333----------|
A-00000-33333--8-7-33333----------|
D-00000-33333--8-7-33333----------|

Verse

E------------------------------|
B------------------------------|
G------------------------------|
D---xx-55-xx-33-xx-3/5-2-------|
A---xx-33-xx-11-xx-1/3-0-------|
D-00---------------------------| x5

Pre Chorus

E-----------------------------|
B-----------------------------|
G-----------------------------|
D-5-5-555-555-7-8-8-888-888---|
A-5-5-555-555-7-8-8-888-888---|
D-5-5-555-555-7-8-8-888-888---|

Verse x2
Pre Chorus
Chorus (same as intro 2)
Verse x5
Pre Chrous
Versex2
Chorus

Interlude

E------------------------------------------------|
B------------------------------------------------|
G------------------------------------------------|
D-8-7-888888888-777777777-555555555-777777777----|
A-8-7-888888888-777777777-555555555-777777777----|
D-8-7-888888888-777777777-555555555-777777777----| x2

Solo

E-------------------------------------------------|
B--(strum)---(strum)---(strum)---(play once)------|
G-14-15-12--17-16-14--15-17-13---17-17-16-14------|
D-x--x--x---x--x--x---x--x--x----x--x--x--x-------|
A-12-13-10--15-14-12--13-15-11---15-15-14-12------|hold
D-------------------------------------------------|

Breakdown

E-------------------------------|
B-------------------------------|
G-------------------------------|
D-0---------5-3-0---------2-3---|
A-0---------3-1-0---------0-1---|
D-0-00000000----0-00000000------| x2
    ********      ********

then...

E--------------------------------|
B--------------------------------|
G--------------------------------|
D-0--------5-3-0--------2-3------|
A-00000000-3-1-00000000-0-1------|
D-00000000-----00000000----------| x4
   *******      *******

E--------------------|
B--------------------|
G--------------------|
D-55555555-7777777---|
A-55555555-7777777---|
D-55555555-7777777---|
  ******** *******

E-------------|
B-------------|
G-----141414--|
D------x-x-x--|
A-000-121212--|
D-000---------| x16 i think

E--------------------|
B--------------------|
G--------------------|
D-55555555-7777777---|
A-55555555-7777777---|
D-55555555-7777777---|
  ******** *******

Verse x5
Pre Chorus
Verse x2
Pre Chorus
Chorus
Chorus (strumming hard)
Verse x1

Finsih hard on this

E--------------------|
B--------------------|
G--------------------|
D-00-0-0-00----------|
A-00-0-0-00----------|
D-00-0-0-00----------|

Thats about it... Pretty easy
Let me know how it sounds

dettmann68@hotmail.com
Добавлено: 28.07.2012
Другие материалы по этой песне:
  • Аккорды и текст

Страница создана 29.02.2012
http://primanota.ru/atreyu/never-too-far-gone-chords.htm
Привет, Гость.
Предлагаем пройти революционный курс по гитаре.
Подарок от PrimaNota.Ru, забирай!