PrimaNota.ru - самый крупный в мире бесплатный архив песенных текстов, аккордов, табулатур и нот


Atreyu - My Sanity On The Funeral Pyre - таба, бас-таба, видео

Регистрация Запомнить меня
Войти через:  Facebook Google Twitter Vk Yandex Mail.ru

Atreyu - My Sanity On The Funeral Pyre - таба, бас-таба, видео

Печатать
Просмотров: 145
Tabbed (Corrected) By : The Edster \m/
Who? Atreyu
What? My Sanity On The Funeral Pyre
Where?
Tuning : CGCFAD


  Intro (Feedback)
D :------------------------------------------------------|
A :------------------------------------------------------|
F :------------------------------------------------------|
c :8//0-0-1--0-0-3--0-000-1-0-1-3------------------------|        4x
G :8//0-0-1--0-0-3--0-000-1-0-1-3------------------------|
C :8//0-0-1--0-0-3--0-000-1-0-1-3------------------------|

  ~Gtr. 2 Pickscrapes~

  Verse (Gtr. 1 & Gtr. 2)
D :------------------------------------------------------|
A :------------------------------------------------------|
F :------------------------------------------------------|
c :0-0-1--0-0-3--0-xxx-1-0-1-3---------------------------|        8x
G :0-0-1--0-0-3--0-xxx-1-0-1-3---------------------------|
C :0-0-1--0-0-3--0-xxx-1-0-1-3---------------------------|

  Verse 2
D :------------------------------------------------------|
A :------------------------------------------------------|
F :------------7^~---------------------------------------|
c :0~----------------------------------------------------|
G :0~----------5^~---------------------------------------|
C :0~----------------------------------------------------|

  Verse 2 Cont..."And Everything I Touch Is Breaking"...(Gtr.1)
D :------------------------------------------------------|
A :---------------3-3h4p3--(3h4p3)-----------------------|
F :------------------------------------------------------|
c :x-x-xxx-----------------------------------------------|
G :x-x-xxx--------------------------------5-5h6p5--------|
C :x-x-xxx-----------------------------------------------|

  Verse 2 Cont...(Gtr.2)
D :------------------------------------------------------|
A :------------7-7h8p7-----------------------------------|
F :------------------------------------------------------|
c :x-x-xxx-------------------x-x-xxx---------------------|
G :x-x-xxx-------------------x-x-xxx------5-5h6p5--------|
C :x-x-xxx-------------------x-x-xxx---------------------|

 Chorus (Gtr.1 & 2) "On My Way To Making Amends"......
D :------------------------------------------------------|
A :------------------------------------------------------|
F :-------------------------------9-9--10-10-------------|
c :5--5--5-1-xxx-xxx-xxx-5--5--5-------------------------|
G :5--5--5-1-xxx-xxx-xxx-5--5--5--6-6--8--8--------------|
C :5--5--5-1-xxx-xxx-xxx-5--5--5-------------------------|

                               ......"To Be What I Became"........
D :-----------------------------------------------------------------------|
A :-----------------------------------------------------------------------|
F :---------------------------10-10-10-10-10-10-10-10-5-5-5-5-5-5-5-5-----|
c :5-5-5-1-xxx-xxx-xxx-5-5-5----------------------------------------------|
G :5-5-5-1-xxx-xxx-xxx-5-5-5--8--8--8--8--8--8--8--8--3-3-3-3-3-3-3-3-----|
C :5-5-5-1-xxx-xxx-xxx-5-5-5----------------------------------------------|

  Chorus (Gtr.1)...."Sometimes It Feels Like"......
D :----------------------------------------------------------------|
A :----------------------------------------------------------------|
F :----------------------------------------------------------------|
c :5-5-5-5-5-5-5-5-8-8-8-8-8-8-8-8-1-1-1-1-1-1-1-1-3-3-3-3-3-3-3-3-|
G :5-5-5-5-5-5-5-5-8-8-8-8-8-8-8-8-1-1-1-1-1-1-1-1-3-3-3-3-3-3-3-3-|
C :5-5-5-5-5-5-5-5-8-8-8-8-8-8-8-8-1-1-1-1-1-1-1-1-3-3-3-3-3-3-3-3-|

  Chorus  (Gtr.2)                                    2x
D :------------------------------------------------------|
A :------------------------------------------------------|
F :12/15/12-7-7-7-7--5--10-7-7-7-7-5-5-5-5-5--10-7-------|
c :------------------------------------------------------|
G :10/13/10-5-5-5-5--3--8--5-5-5-5-3-3-3-3-3--8--5-------|
C :------------------------------------------------------|

Verse-4x
Verse2-4x
Chorus intro
Chorus-2x

  "For the first time I'm losing control"................(Gtr.1) (x2)
D :-------------------------------------------------------------------------|
A :-------------------------------------------------------------------------|
F :-------------------------------------------------------------------------|
c :111-1-1-1--111-1-1-111-1-1-1--111-1-1-555-5-5--555-5-5-555-5-5-5--5-5-8/-|
G :111-1-1-1--111-1-1-111-1-1-1--111-1-1-555-5-5--555-5-5-555-5-5-5--5-5-8/-|
C :111-1-1-1--111-1-1-111-1-1-1--111-1-1-555-5-5--555-5-5-555-5-5-5--5-5-8/-|

  (Gtr.2) ~Enters with Gtr.1~
D :------------------------------------------------------|
A :------------------------------------------------------|
F :7p0h7p0h7p0h7p0h12h15p12p8p7p0h7p0h7p0h7p0h8p7-8p7-8p7
c :---------------------------------------------------------------|        2x
G :---------------------------------------------------------------|
C :---------------------------------------------------------------|

  (Gtr.1)
D :----------------------------------------------------------------|
A :----------------------------------------------------------------|
F :----------------------------------------------------------------|
c :1-1-1-1-1-1-1-1-1-1-1-1-1-1-1-1-5-5-5-5-5-5-5-5-5-5-5-5-5-5-5-5-|
G :1-1-1-1-1-1-1-1-1-1-1-1-1-1-1-1-5-5-5-5-5-5-5-5-5-5-5-5-5-5-5-5-|
C :1-1-1-1-1-1-1-1-1-1-1-1-1-1-1-1-5-5-5-5-5-5-5-5-5-5-5-5-5-5-5-5-|

  Solo (Gtr.2)
D :---------------------------------------------------------------|
A :------------------------------18-16-15-13-15-13----------------|
F :12~----------12-15^-14-15^-14~------------------15-14-15-12-14-|
c :----12-13-15---------------------------------------------------|
G :---------------------------------------------------------------|
C :---------------------------------------------------------------|
  Solo - Cont.
D :--------------------------------------|
A :--------------------------------------|
F :--------------------------------------|
c :-15-13----------12-15-13----------16^-|
G :-------12-13-15----------17-15-17-----|
C :--------------------------------------|


  Break Down (Gtr.1)
D :--------------------------------------------------------------------------|
A :--------------------------------------------------------------------------|
F :--------------------------------------------------------------------------|
c :1-1-1---1~-----xxxxxx1-1-1--1-3-3-5-5--1-1-1---1-----xxxxxx1-1-1--3-3-5-5-|
G :1-1-1---1~-----xxxxxx1-1-1--1-3-3-5-5--1-1-1---1-----xxxxxx1-1-1--3-3-5-5-|
C :1-1-1---1~-----xxxxxx1-1-1--1-3-3-5-5--1-1-1---1-----xxxxxx1-1-1--3-3-5-5-|

  Breakdown (Gtr.2)
D :------------------------------------------------------|
A :------------------------------------------------------|
F :7^----7~----10-8-7-8--7-5-7--5-3-2-3------------------|
c :-------------------------------------3----------------|
G :------------------------------------------------------|
C :------------------------------------------------------|

  (Gtr.1 & 2)
D :------------------------------------------------------|
A :------------------------------------------------------|
F :7^----------------------------------------------------|
c :1-1-1--1~---------------------------------------------|
G :1-1-1--1~---------------------------------------------|
C :1-1-1--1~---------------------------------------------|

Questions? Comments? E-mail Me!
I3irthDefect@aol.com
Добавлено: 23.04.2012
Другие материалы по этой песне:

Страница создана 27.02.2012
http://primanota.ru/atreyu/my-sanity-on-the-funeral-pyre-chords.htm
Привет, Гость.
Предлагаем пройти революционный курс по гитаре.
Подарок от PrimaNota.Ru, забирай!