PrimaNota.ru - самый крупный в мире бесплатный архив песенных текстов, аккордов, табулатур и нот


Atreyu - My Fork In The Road Your Knife In My Back - текст песни, таба, видео

Регистрация Запомнить меня
Войти через:  Facebook Google Twitter Vk Yandex Mail.ru

Atreyu - My Fork In The Road Your Knife In My Back - текст песни, таба, видео

Печатать
Просмотров: 259
                   ----------------------------------------
                   -------MY FORK IN THE ROAD==SOLO--------
                   ----------------ATREYU------------------
                   ----------------------------------------

                             Tabbed by: Slats18
                     Email: slats_18*at*hotmail*dot*com

    Second tab I've created, tabbed this to the best of my ability but 
    still not great. The final fast part is just an educated guess and
    the 22nd fret bend on the e string I suspect is a harmonic, but what
    I've substituted sounds fine. Timing is something that comes with
    practice and isn't represented in this tab, don't have that much time
    on my hands. Enjoy!


                           TUNING: Drop C (CGCFAD)
                              -----------------
                              | b - bend      |
                              |(#)- harmonic  |
                              | x - palm mute |
                              | / - slide up  |
                              | ~ - let ring  |
                              | h - hammer-on |
                              | p - pull-off  |
                              -----------------

D||------------------------------------|
A||------------------------------------|
F||------------------------------------|
C||--10b---7---10b---7-----7-10b-7b----|
G||---------------------10-------------|
C||------------------------------------|

    
D||-----------------------------------------------|
A||----------------------------------10---10b-10b~|
F||-------------------------------/9----9---------|
C||------7-(10b)----7-----------------------------|
G||--10b---------10---10--------------------------|
C||----------------------12-10b-------------------|
                 x  x x  x 

D||--10----------10------------10------|
A||-----10h12h13----13p12p10------12b--|
F||------------------------------------|
C||------------------------------------|
G||------------------------------------|
C||------------------------------------|


D||--10----------10----------------------------|
A||-----10h12h13----13p12p10---------/10b-10b--|  
F||--------------------------12p10p9-----------|
C||--------------------------------------------|
G||--------------------------------------------|
C||--------------------------------------------|


D||------------17p15----------17p15----------17p15----------17p15-----|
A||--17~--15h17-----17~--15h17-----17~--15h17-----17~--15h17-----17~--|
F||-------------------------------------------------------------------|
C||-------------------------------------------------------------------|
G||-------------------------------------------------------------------|
C||-------------------------------------------------------------------|

   
D||-----------13h15h17/20-17p15h17b~------|
A||--13h15h17-------------------------12b-|
F||---------------------------------------|
C||---------------------------------------|
G||---------------------------------------|
C||---------------------------------------|


D||-------------------------------------10h12-10---------------22b----------|
A||--------------------------------10h13---------10-------------------------|
F||---------------------------10h12-----------------9----------------12b-9b~|
C||----9h10p9p7--------9h10h12------------------------12-10-12--------------|
G||--8----------8h10h12-----------------------------------------------------|
C||-------------------------------------------------------------------------|
     x          
Добавлено: 06.03.2012
Другие материалы по этой песне:

Страница создана 27.02.2012
http://primanota.ru/atreyu/my-fork-in-the-road-your-knife-in-my-back-chords.htm
Привет, Гость.
Предлагаем пройти революционный курс по гитаре.
Подарок от PrimaNota.Ru, забирай!