PrimaNota.ru - самый крупный в мире бесплатный архив песенных текстов, аккордов, табулатур и нот


Atreyu - Love Is Illness - текст песни, бас-таба, видео

Регистрация Запомнить меня
Войти через:  Facebook Google Twitter Vk Yandex Mail.ru

Atreyu - Love Is Illness - текст песни, бас-таба, видео

Печатать
Просмотров: 120
Band: Atreyu

Song: Love Is Illness

Album: Visions (EP 1998)

Tuning: Drop C

 ~ let ring

part1
0:15
---------|
-----000-|
-000-----|
---------|

part2                             4X                                4X                              4X
------------------------------------I---------------------------------I--------------------------------|I
-54-4-444-54-4-444-54-4-444-----02--I-44-4-4-4-4-4-4-4-------0-0-0-00-I-------------------0-000-4-444--|I
----------------------------000-----I-----------------2-2-22----------I-22222222-22222222--------------|I
------------------------------------I---------------------------------I--------------------------------|I

repeat part2

----
----
-2~-
----


------------------------------------------------------------------------------|
------0000------3333------0000----------------0000------3333------0000--------|
-2222------2222------2222------2222-0000-2222------2222------2222------2222-0-|
------------------------------------------------------------------------------|

-----------------------------------------------------------------------------------|
------0-00------3333------0-00----------------0-00------3333------0-00-------------|
-2-22------2-22------2-22------2-22-2023-2-22------2-22------2-22------2-22-2023-2-|
-----------------------------------------------------------------------------------|

                     2X
-----------------------|
------0-00-------------|
-2-22------2-22-2023-2-|
-----------------------|

-------------|
-4~---4~--4--|
-------------|
-------------|

repeat part1
repeat part2

-------|
-------|
-2-2-2-|
-------|
Добавлено: 14.07.2012
Другие материалы по этой песне:
  • Аккорды и текст

Страница создана 10.04.2012
http://primanota.ru/atreyu/love-is-illness-chords.htm
Привет, Гость.
Предлагаем пройти революционный курс по гитаре.
Подарок от PrimaNota.Ru, забирай!