PrimaNota.ru - самый крупный в мире бесплатный архив песенных текстов, аккордов, табулатур и нот


Atreyu - Insatiable - таба, видео

Регистрация Запомнить меня
Войти через:  Facebook Google Twitter Vk Yandex Mail.ru

Atreyu - Insatiable - таба, видео

Печатать
Просмотров: 142
/---------------------------Insatiable                             
                                     
/-----------------------------Atreyu                                
                                      
/-------------------Congregation of the damned   

I couldn't turn the intro part to whole song...so here's the solo and the last chorus...yay!

p.s. this is a great song to destroy stuff with =)

                      *LEAD GUITAR (DAN JACOBS)*
2:25        
|-------------------------------|--------------------------------------|
|-------------------------------|--------------------------------------|
|-7b~-7-5-----5-7-8-7--5-5-5-7--|-7b~-7-5-----5-7-8-5-7-8-5-7---5-5--3~|
|---------3/5------------------8|---------3/5-----------------8--5-5---|
|-------------------------------|--------------------------------------|
|-------------------------------|--------------------------------------|

|-------------------------------|----------------------------|
|-------------------------------|---------4/6--4--3-3-----3/4|
|-7b~-7-5-----5-7-8-7--5-5-5-7--|-7b~-7-5-------------4-4----| 
|---------3/5------------------8|----------------------------|
|-------------------------------|----------------------------|
|-------------------------------|----------------------------|
   
2:50
|---------6---------18----------|
|-6b-6b-6b--/18b-18b----20-18---|
|-----------------------------20|
|-------------------------------|
|-------------------------------|
|-------------------------------|

2:53                                        
|------------------------------------------|
|------------------------------------------|
|----------15------------------------------|
|-15-17-18----18-17-15-17151715-13-15----13|
|-------------------------------------15---|
|------------------------------------------|

2:56
|-18b-18-18-20---------------------------|
|--------------20-18----18-20-18-------16|
|--------------------20----------20-17---|
|----------------------------------------|
|----------------------------------------|
|----------------------------------------|

2:59
|------------------|  |-------16-15----------15-16-18-18b|
|----------15h16---|  |----16-------18-16-18-------------|
|-15h17h15-------15|  |-17-------------------------------|
|------------------|  |----------------------------------|
|------------------|  |----------------------------------|
|------------------|x2|----------------------------------|

3:08
|-10/15------------------------------|
|-------15-------15------------------|
|----------15-------------17-------15|
|-------------15----17-15----15------|
|-------------------------------18---|
|------------------------------------|

at 3:12-3:15, theres a part i couldn't get right so i dind't put it. sorry!

|-------------------------|
|-------------------------|
|-------------------------|
|-----------------13-12---|
|---10-8-8/11-10--------13|
|-8-----------------------|x2

|-----------------------|
|-----------------------|
|------------------8-7--|
|----------------------8|
|---10--8--11--10-------|
|-88--88-88--88---------|x2

chorus
|---------------------------------------------------------|
|---------------------------------------------------------|
|-------------------------------------8-8-8-8/101010101010|
|-8/10-101010101010-8/10-101010101010-8-8-8-8/101010101010|
|-8/10-101010101010-8/10-101010101010-6-6-6-6/-8-8-8-8-8-8|
|-6/-8--8-8-8-8-8-8-6/-8--8-8-8-8-8-8---------------------|x2

                  *RHYTHM GUITAR (TRAVIS MIGUEL)* 
2:25
|--------------------------------|
|--------------------------------|
|--------------------------------|
|-10101010101010101010-8888888888|
|-10101010101010101010-8888888888|
|--8-8-8-8-8-8-8-8-8-8-6666666666|

2:37
|-------------------------------|----------------------------|
|-------------------------------|---------4/6--4--3-3-----3/4|
|-7b~-7-5-----5-7-8-7--5-5-5-7--|-7b~-7-5-------------4-4----| 
|---------3/5------------------8|----------------------------|
|-------------------------------|----------------------------|
|-------------------------------|----------------------------|

2:50   
|----------------------------------------------|
|----------------------------------------------|
|------------------------88888888888-6666666666|
|-1010101010101010101010-88888888888-6666666666|
|-1010101010101010101010-66666666666-4444444444|
|--8-8-8-8-8-8-8-8-8-8-8-----------------------|

3:02
|--------------------------------|-----------------------------------------|
|--------------------------------|---------------------------------13------|
|--------------------------------|------------15---------------------------|
|--------------------------------|-----------------------------------------|
|-15-15-13-13-12-12---12----12-13|12-13-12-13----13-12-13-12-13-12----13-12|
|-------------------13---13------|-----------------------------------------|
|--------------------------------|-----------------------------------------|

same.at 3:12-3:15, theres a part i couldn't get right so i dind't put it. sorry! 

(with special effects)
|---------------------------|
|---------------------------|
|---------------------------|
|-10-10-10-10-10-10-10-10-10|
|-10-10-10-10-10-10-10-10-10|
|--8--8--8--8--8--8--8--8--8|x2

|---------------------------|
|---------------------------|
|---------------------------|
|----10-8--11--10-1010101010|
|----10-8--11--10-1010101010|
|-88--88-88--88----8-8-8-8-8|x2

chorus
|---------------------------------------------------------|
|---------------------------------------------------------|
|-------------------------------------8-8-8-8/101010101010|
|-8/10-101010101010-8/10-101010101010-8-8-8-8/101010101010|
|-8/10-101010101010-8/10-101010101010-6-6-6-6/-8-8-8-8-8-8|
|-6/-8--8-8-8-8-8-8-6/-8--8-8-8-8-8-8---------------------|x2

thats it...hope u enjoy it, its one of my favorites of the album

END......=D
Добавлено: 07.06.2012
Другие материалы по этой песне:

Страница создана 24.02.2012
http://primanota.ru/atreyu/insatiable-chords.htm
Привет, Гость.
Предлагаем пройти революционный курс по гитаре.
Подарок от PrimaNota.Ru, забирай!