PrimaNota.ru - самый крупный в мире бесплатный архив песенных текстов, аккордов, табулатур и нот


Atreyu - Gallows - таба, бас-таба, видео

Регистрация Запомнить меня
Войти через:  Facebook Google Twitter Vk Yandex Mail.ru

Atreyu - Gallows - таба, бас-таба, видео

Печатать
Просмотров: 128
Авторы: Brandon Saller, Alex Varkatzas, Travis Miguel, Dan Jacobs, Marc McKnight

-------------------------------------------------------------------------------
                             Gallows - Atreyu
-------------------------------------------------------------------------------
Tabbed by:PT-E
Email:

Tuning:Drop C

Intro
 Guitar 1  2x
|---------------------------------------------------------------------------|
|---------------------------------------------------------------------------|
|-0/---0-0-12-0-0-10-0-0-8-0-0-7-0-0-5-0-0-0-12-0-0-10-0-0-8-0-0-7-0-0-5----|
|---------------------------------------------------------------------------|
|---------------------------------------------------------------------------|
|---------------------------------------------------------------------------|

4x
 Guitar 1
|---------------------------------------------------------------------------|
|---------------------------------------------------------------------------|
|-0-0-12-0-0-10-0-0-8-0-0-7-0-0-5-0-0-0-12-0-0-10-0-0-8-0-0-7-0-0-5---------|
|---------------------------------------------------------------------------|
|---------------------------------------------------------------------------|
|---------------------------------------------------------------------------|
 Guitar 2
|---------------------------------------------------------------------------|
|---------------------------------------------------------------------------|
|-0-0-15-0-0-14-0-0-12-0-0-10-0-0-8-0-0-0-15-0-0-14-0-0-12-0-0-10-0-0-8-----|
|---------------------------------------------------------------------------|
|---------------------------------------------------------------------------|
|---------------------------------------------------------------------------|


Verse 2x
 Guitar 2
|-----------------------------------------------------------------------------|
|-----------------------------------------------------------------------------|
|-----------------------------------------------------------------------------|
|-1-1--1--1--1-1--1--1--3--1-1--1--1--1-1--1--1--3--5-------------------------|
|-1-1--1--1--1-1--1--1--3--1-1--1--1--1-1--1--1--3--5-------------------------|
|-1-1--1--1--1-1--1--1--3--1-1--1--1--1-1--1--1--3--5-------------------------|
  x x        x x           x x        x x
 Guitar 1
|-----------------------------------------------------------------------------|
|-----------------------------------------------------------------------------|
|---------------------------------------------3--5--7-7-7-5-5-8-8-8\7-7-7-7-5-|
|---------------------------------------------x--x--x-x-x-x-x-x-x-x-x-x-x-x-x-|
|---------------------------------------------1--3--5-5-5-3-3-6-6-6\5-5-5-5-3-|
|-----------------------------------------------------------------------------|


Pre-chorus
 Guitar 1
|---------------------------------------|
|---------------------------------------|
|-3--------5---------3---------5--------|
|-x--------x---------x---------x--------|
|-1--------3---------1---------3--------|
|---------------------------------------|
 Guitar 2
|---------------------------------------|
|---------------------------------------|
|---------------------------------------|
|-1--------3---------1---------3--------|
|-1--------3---------1---------3--------|
|-1--------3---------1---------3--------|

Chorus
 Guitar 1   1.2.3                          4.
|--------------------------------------|------------------------------------------|
|-151515151515151515151616161618181818-|-1515151515151515151513131313131511111111-|
|--------------------------------------|------------------------------------------|
|--------------------------------------|------------------------------------------|
|--------------------------------------|------------------------------------------|
|--------------------------------------|------------------------------------------|
 Guitar 2   1.2.3                          4.
|--------------------------------------|------------------------------------------|
|-111111111111111111111313131315151515-|-1111111111111111111110101010101188888----|
|--------------------------------------|------------------------------------------|
|--------------------------------------|------------------------------------------|
|--------------------------------------|------------------------------------------|
|--------------------------------------|------------------------------------------|
 Guitar 3
|---------------------------------------------------------------------------------|
|---------------------------------------------------------------------------------|
|-----------------5-5-5-5-5-5-5-5-------------------------------------------------|
|-1-1-1-1-1-1-1-1-5-5-5-5-5-5-5-5-5-5-5-5-5-5-5-5-8-8-8-8-8-8-8-8-----------------|
|-1-1-1-1-1-1-1-1-3-3-3-3-3-3-3-3-5-5-5-5-5-5-5-5-8-8-8-8-8-8-8-8-----------------|
|-1-1-1-1-1-1-1-1-----------------5-5-5-5-5-5-5-5-8-8-8-8-8-8-8-8-----------------|
 Guitar 3
|---------------------------------------------------------------------------------|
|---------------------------------------------------------------------------------|
|-----------------5-5-5-5-5-5-5-5-------------------------------------------------|
|-1-1-1-1-1-1-1-1-5-5-5-5-5-5-5-5--5--5--5-x-x-x-x--5--5--5-x-x-x-x-5-3-1------3--|
|-1-1-1-1-1-1-1-1-3-3-3-3-3-3-3-3--5--5--5-x-x-x-x--5--5--5-x-x-x-x-5-3-1------3--|
|-1-1-1-1-1-1-1-1------------------5--5--5-x-x-x-x--5--5--5-x-x-x-x-5-3-1------3--|


Solo
 Guitar 1
|---------------------------------------------------------------------------|
|-----------------------------------11~--13-15~---13--13~----15-15-15-13-13-|
|--3~--5-7~---8-7~----8-7--5-5~---------------------------------------------|
|---------------------------------------------------------------------------|
|---------------------------------------------------------------------------|
|---------------------------------------------------------------------------|
 Guitar 2
|---------------------------------------------------------------------------|
|---------------------------------------------------------------------------|
|-----------------------------------12~--14-15~---14--14~~---15-15-15-14-14-|
|--5~--7-8~--10-8~---10-8--7-7~---------------------------------------------|
|---------------------------------------------------------------------------|
|---------------------------------------------------------------------------|
 Guitar 3
|---------------------------------------------------------------------------|
|---------------------------------------------------------------------------|
|---------------------------------------------------------------------------|
|--5-----8------8-------3-----------5--------8---------3--------------------|
|--5-----8------8-------3-----------5--------8---------3--------------------|
|--5-----8------8-------3-----------5--------8---------3--------------------|


Verse 
 Guitar 2
|-----------------------------------------------------------------------------|
|-----------------------------------------------------------------------------|
|-----------------------------------------------------------------------------|
|-1-1--1--1--1-1--1--1--3--1-1--1--1--1-1--1--1--3--5-------------------------|
|-1-1--1--1--1-1--1--1--3--1-1--1--1--1-1--1--1--3--5-------------------------|
|-1-1--1--1--1-1--1--1--3--1-1--1--1--1-1--1--1--3--5-------------------------|
  x x        x x           x x        x x
 Guitar 1   1. 2.                             3. 
|--------------------------------------|--------------------------------------|
|--------------------------------------|--------------------------------------|
|--------------------------------------|------3--5--7-7-7-5-5-8-8-8\7-7-7-7-5-|
|-8-0000-7-0000-5-0000-7-00-8p7p5h7----|------x--x--x-x-x-x-x-x-x-x-x-x-x-x-x-|
|--------------------------------------|------1--3--5-5-5-3-3-6-6-6\5-5-5-5-3-|
|--------------------------------------|--------------------------------------|
    xxxx   xxxx   xxxx   xx

 Guitar 2
|-----------------------------------------------------------------------------|
|-----------------------------------------------------------------------------|
|-----------------------------------------------------------------------------|
|-1-1--1--1--1-1--1--1--3--1-1--1--1--1-1--1--1--3--5-------------------------|
|-1-1--1--1--1-1--1--1--3--1-1--1--1--1-1--1--1--3--5-------------------------|
|-1-1--1--1--1-1--1--1--3--1-1--1--1--1-1--1--1--3--5-------------------------|
  x x        x x           x x        x x
 Guitar 1   1. 2.                             3. 
|--------------------------------------|--------------------------------------|
|--------------------------------------|--------------------------------------|
|-10-7777-8-7777-7-7777-8-77-10p8p7h8--|------3--5--7-7-7-5-5-8-8-8\7-7-7-7-5-|
|--------------------------------------|------x--x--x-x-x-x-x-x-x-x-x-x-x-x-x-|
|--------------------------------------|------1--3--5-5-5-3-3-6-6-6\5-5-5-5-3-|
|--------------------------------------|--------------------------------------|
     xxxx   xxxx   xxxx   xx

Pre-Chorus

Chorus

Solo 2.
 Guitar 1
|---------------------------------15----15--17----17--18\15-15---15---------|
|--8-----8--10----10--11\8--8--------15--------18---------------------------|
|-----7--------11-----------------------------------------------------------|
|---------------------------------------------------------------------------|
|---------------------------------------------------------------------------|
|---------------------------------------------------------------------------|
 Guitar2
|---------------------------------------------------------------------------|
|---------------------------------------------------------------------------|
|---------------------------------------------------------------------------|
|--1-1-1-1--3-3-3-3---8--5~-------1-1-1-1---3-3-3-3----8--5~----------------|
|--1-1-1-1--3-3-3-3---8--5~-------1-1-1-1---3-3-3-3----8--5~----------------|
|--1-1-1-1--3-3-3-3---8--5~-------1-1-1-1---3-3-3-3----8--5~----------------|

 Guitar 1
|---------------------------------------------------------------------------|
|--8--8--8--10-10-10-11-11-11--15---13---11-----8--8--8--10-10-10-----------|
|---------------------------------------------------------------------------|
|---------------------------------------------------------------------------|
|---------------------------------------------------------------------------|
|---------------------------------------------------------------------------|
 Guitar 3
|---------------------------------------------------------------------------|
|---------------------------------------------------------------------------|
|--8--8--8--11-11-11--7--7--7--15---14---10-----8--8--8--11-11-11-----------|
|------------------------------------------------------------------7b8-5----|
|---------------------------------------------------------------------------|
|---------------------------------------------------------------------------|
 Guitar 2
|---------------------------------------------------------------------------|
|---------------------------------------------------------------------------|
|---------------------------------------------------------------------------|
|--1-1-1-1---3-3-3-3---0-0-0-0---5-5-5-5--------1-1-1-1--0-0-0-0-----8-5----|
|--1-1-1-1---3-3-3-3---0-0-0-0---5-5-5-5--------1-1-1-1--0-0-0-0-----8-5----|
|--1-1-1-1---3-3-3-3---0-0-0-0---5-5-5-5--------1-1-1-1--0-0-0-0-----8-5----|



 Guitar 1
|---------------------------------------------------------------------------|
|-151515151515151515151616161618181818--------------------------------------|
|---------------------------------------------------------------------------|
|---------------------------------------------------------------------------|
|---------------------------------------------------------------------------|
|---------------------------------------------------------------------------|
 Guitar 2
|---------------------------------------------------------------------------|
|-111111111111111111111313131315151515--------------------------------------|
|---------------------------------------------------------------------------|
|---------------------------------------------------------------------------|
|---------------------------------------------------------------------------|
|---------------------------------------------------------------------------|


Chorus 2x


|---------------------------------------------------------------------------|
|---------------------------------------------------------------------------|
|---------------------------------------------------------------------------|
|--5--5--5-x-x-x--5--5--5-x-x-x--5--3--5\-----------------------------------|
|--5--5--5-x-x-x--5--5--5-x-x-x--5--3--5\-----------------------------------|
|--5--5--5-x-x-x--5--5--5-x-x-x--5--3--5\-----------------------------------|


| /  slide up
| \  slide down
| h  hammer-on
| p  pull-off
| +  harmonic
| x  Mute note
===============================================================================
Добавлено: 23.07.2012
Другие материалы по этой песне:

Страница создана 18.04.2012
http://primanota.ru/atreyu/gallows-chords.htm
Привет, Гость.
Предлагаем пройти революционный курс по гитаре.
Подарок от PrimaNota.Ru, забирай!