PrimaNota.ru - самый крупный в мире бесплатный архив песенных текстов, аккордов, табулатур и нот


Atreyu - Doomsday - текст песни, таба, бас-таба, видео

Регистрация Запомнить меня
Войти через:  Facebook Google Twitter Vk Yandex Mail.ru

Atreyu - Doomsday - текст песни, таба, бас-таба, видео

Печатать
Просмотров: 326
Уроки эстрадного вокала в Санкт-Петербурге
I have tabbed out both versions the live, and the studio. NOTE* The only difference is 
way the first part is played the 2nd and 3rd are the same.
Enjoy!

STUDIO
D|--------------------------------------------------------------------------|
A|---------------------------------17-16-15-14-13---------------------------|
F|-///12b14-12b14*-10-12-12b14*-14----------------15-14-13-15-14-~13-\\\----|
C|--------------------------------------------------------------------------|
G|--------------------------------------------------------------------------|
C|--------------------------------------------------------------------------|

D|h12p8h12p8p7p5h12p8h12p8p7p5h15p8p7p5h12p8h12p8p7p5h12p8h12p8p7p5h17p3h7p5|
A|--------------------------------------------------------------------------|
F|--------------------------------------------------------------------------|
C|--------------------------------------------------------------------------|
G|--------------------------------------------------------------------------|
C|--------------------------------------------------------------------------|

D|-------------------------5-7-8--------------------------------------------|
A|-------------------5-7-8-------6-----8-----9------------------------------|
F|-------------4-5-7-------------8b10--10b12-11b13-\\\\---------------------|
C|-------4-5-7--------------------------------------------------------------|
G|-4-5-7--------------------------------------------------------------------|
C|--------------------------------------------------------------------------|

=============================================================================
LIVE
D|-------------------------8-7-6-5------------------------------------------|
A|-8b10-8b10*-6-8-8b10*------------8-7-6-5-4-3-~2\\\------------------------|
F|--------------------------------------------------------------------------|
C|-----------------------0--------------------------------------------------|
G|-----------------------0--------------------------------------------------|
C|-----------------------0--------------------------------------------------|

D|h12p8h12p8p7p5h12p8h12p8p7p5h15p8p7p5h12p8h12p8p7p5h12p8h12p8p7p5h17p3h7p5|
A|--------------------------------------------------------------------------|
F|--------------------------------------------------------------------------|
C|--------------------------------------------------------------------------|
G|--------------------------------------------------------------------------|
C|--------------------------------------------------------------------------|

D|-------------------------5-7-8--------------------------------------------|
A|-------------------5-7-8-------6-----8-----9------------------------------|
F|-------------4-5-7-------------8b10--10b12-11b13-\\\\---------------------|
C|-------4-5-7--------------------------------------------------------------|
G|-4-5-7--------------------------------------------------------------------|
C|--------------------------------------------------------------------------|

KEY
* = Pinch Harmonic
h = hammer on
p = pull off
b = bend to indicated note
~ = vibrato
/ = slide up
\ = slide down
Добавлено: 10.06.2012
Другие материалы по этой песне:

Страница создана 03.03.2012
http://primanota.ru/atreyu/doomsday-chords.htm
Привет, Гость.
Предлагаем пройти революционный курс по гитаре.
Подарок от PrimaNota.Ru, забирай!