PrimaNota.ru - самый крупный в мире бесплатный архив песенных текстов, аккордов, табулатур и нот


Atreyu - Congregation Of The Damned (album) - таба, видео

Регистрация Запомнить меня
Войти через:  Facebook Google Twitter Vk Yandex Mail.ru

Atreyu - Congregation Of The Damned (album) - таба, видео

Печатать
Просмотров: 123
Okay, to make things perfectly clear: I DID NOT TAB ANY OF THESE!! I only copied and
ones with the highest rating and or best reviewed. So here is Atreyu's Congregation of the
(Partial Album) If you guys have tabbed or are willing to tab the ones that are not on 
list here, send me a message or comment with your Atreyu tab and I will update this tab
soon as I can. ENJOY!


* - Songs that are NOT on the list:

*Stop! Before It's Too Late and We've Destroyed It All
*Coffin Nails
*Black Days Begin
*Insatiable
*So Wrong
*Ravenous
*Lonely

Songs that ARE on the list:

- Bleeding Is A Luxury - WoRm_SIW
- Congregation of the Damned - Drool_Mouse
- Gallows - PT-E
- Storm To Pass - Drool_Mouse
- You Were The King, Now You're Unconcious - PT-E


BLEEDING IS A LUXURY: WoRm_SIW

Tuning: DAFCGC

D|-----------------------------|
A|-----------------------------|
F|xxxxxxxxxxxxxxxxxxxxxxxxxxxx-|
C|-h10h12p0--h12/15p0--h12p0---|   4x
G|xxxxxxxxxxxxxxxxxxxxxxxxxxxx-|
C|-----------------------------|

D|xxxxxxxxxxxxxxxxxxxxxxxxxxxx-|
A|-h13h15p0--h15/19p0--h15p0---|
F|xxxxxxxxxxxxxxxxxxxxxxxxxxxx-|
C|-----------------------------|   2x
G|-----------------------------|
C|-----------------------------|

D|xxxxxxxxxxxxxxxxxxxxxxxxxxxx-|
A|-h10h13p0--h13/15p0--h13p0---|
F|xxxxxxxxxxxxxxxxxxxxxxxxxxxx-|
C|-----------------------------|   2x
G|-----------------------------|
C|-----------------------------|


~PRE-VERSE AND VERSE 1~

D|-------------------|----|----------------------|
A|-------------------|----|----------------------|
F|-7--X--9--X--10--X-|----|--10\9\7/9/10\9\7/9---|
C|-x--X--x--X---x--X-|-3x-|---x-x-x-x-x--x-x-x---|  2x
G|-5--X--7--X---8--X-|----|---8\7\5/7/-8\7\5\7---|
C|-------------------|----|----------------------|

D|-------------------|----|----------------------|
A|-------------------|----|----------------------|
F|-7--X--9--X--10--X-|----|--10\9\7/9/10\9\7/9---|
C|-x--X--x--X---x--X-|-3x-|---x-x-x-x-x--x-x-x---|
G|-5--X--7--X---8--X-|----|---8\7\5/7/-8\7\5\7---|
C|-------------------|----|----------------------|


D|---------------------------------------------------------|
A|---------------------------------------------------------|
F|---------------------------------------------------------|
C|-5-55555---3-333333---88888--7-777-7-777-7---------------|
G|-5-55555---3-333333---88888--7-777-7-777-7---------------|
C|-5-55555---3-333333---88888--7-777-7-777-7---------------|
                                 ...   ...
  (Repeat)

~CHORUS~

D|-----------------------------------------|
A|-----------------------------------------|
F|-----------------------------------------|
C|--0000000--7777777--8888888--5555555-----| 2x
G|--0000000--7777777--8888888--5555555-----|
C|--0000000--7777777--8888888--5555555-----|

~IDK WHAT THIS THING IS~

D|---------------------------------|-----------------------------------|
A|---------------------------------|-----------------------------------|
F|---------------------------------|-----------------------------------|
C|--0-X---0-X----4--2--0--4--2--0--|--0-X---0-X----4--2--0--///12------|
G|--0-X---0-X----4--2--0--4--2--0--|--0-X---0-X----4--2--0--///12------|
C|--0-X---0-X----4--2--0--4--2--0--|--0-X---0-X----4--2--0--///12------|
                 .  .  .  .  .  .                  .  .  .

~VERSE 2~
D|-------------------|----|----------------------|
A|-------------------|----|----------------------|
F|-7--X--9--X--10--X-|----|--10\9\7/9/10\9\7/9---|
C|-x--X--x--X---x--X-|-3x-|---x-x-x-x-x--x-x-x---|
G|-5--X--7--X---8--X-|----|---8\7\5/7/-8\7\5\7---|
C|-------------------|----|----------------------|


D|---------------------------------------------------------|
A|---------------------------------------------------------|
F|---------------------------------------------------------|
C|-5-55555---3-333333---88888--7-777-7-777-7---------------|
G|-5-55555---3-333333---88888--7-777-7-777-7---------------|
C|-5-55555---3-333333---88888--7-777-7-777-7---------------|
                                 ...   ...

   (Repeat)

~CHORUS~

~BREAKDOWN~

D|----------------------------|---------------------|
A|----------------------------|---------------------|
F|----------------------------|---------------------|
C|-0000-00000-00000--0000-000-|---I still haven't---| 2x
G|-0000-00000-00000--0000-000-|-------figured-------|
C|-0000-00000-00000--0000-000-|----this part out.---|
   .... ..... .....  .... ...

D|----------------------------|-------|
A|----------------------------|-------|
F|----------------------------|-------|
C|-3333-33333-33333--3333-333-|--8\1--|
G|-3333-33333-33333--3333-333-|--8\1--|
C|-3333-33333-33333--3333-333-|--8\1--|
   .... ..... .....  .... ...

D|----------------------------|--------------|
A|----------------------------|--------------|
F|----------------------------|--------------|
C|-0000-00000-00000--0000-000-|--8\1--0~~~---|
G|-0000-00000-00000--0000-000-|--8\1--0~~~---|
C|-0000-00000-00000--0000-000-|--8\1--0~~~---|
   .... ..... .....  .... ...


~CHORUS~

D|----------------------------|--------------|
A|----------------------------|--------------|
F|----------------------------|--------------|
C|-0000-00000-00000--0000-000-|--8\1--0~~~---|
G|-0000-00000-00000--0000-000-|--8\1--0~~~---|
C|-0000-00000-00000--0000-000-|--8\1--0~~~---|
   .... ..... .....  .... ...

I know some parts aren't 100% correct and I may be missing some things... But at
this will get you going in the right direction. Thanks for checking out my tab. Let me know
you think!!!


CONGREGATION OF THE DAMNED: Drool_Mouse

Intro


Guitar I
0:05
|----------------------------------------|
|---/10---12//13--12---/15-13\12---------|
|----------------------------------------|
|----------------------------------------|  x2
|----------------------------------------|
|----------------------------------------|

Guitar II
0:05
|----------------------------------------|
|----------------------------------------|
|----------------------------------------|
|---7------------6-----3-----------------|  x2
|---7------------6-----3-----------------|
|---7------------6-----3-----------------|


Guitar III
0:10
|----------------------------------------|
|---/13---15//17--15---/18-17\15---------|
|----------------------------------------|
|----------------------------------------|
|----------------------------------------|
|----------------------------------------|


Verse 1

0:15

Guitar I
|--0------------------------------0-----------------------|
|--1------------------------------0-----------------------|
|--2------------------------------9-----------------------|
|--2------------------------------9-----------------------|
|--0------------------------------7-----------------------|
|---------------------------------------------------------|

|--0------------------------------0-----------------------|
|--1------------------------------1-----------------------|
|--2------------------------------2-----------------------|
|--2------------------------------2-----------------------|
|--0------------------------------0-----------------------|
|---------------------------------------------------------|

Guitar II
Staccato notes here
|--------------------------------------------------------------|
|-10-10---13p10---10-10-13p10--10-9-9---12p9---9-9-12p9--9-----|
|--------------------------------------------------------------|
|--------------------------------------------------------------|
|--------------------------------------------------------------|
|--------------------------------------------------------------|

|--------------------------------------------------------------|
|-10-10---13p10---10-10-13p10--10--10-10---13p10---10-10-13p10-|
|--------------------------------------------------------------|
|--------------------------------------------------------------|
|--------------------------------------------------------------|
|--------------------------------------------------------------|


Pre-chorus

0:25

Guitar I
|----------------------------------------|
|---/10---12//13--12---/15-13\12---------|
|----------------------------------------|
|----------------------------------------|  x2
|----------------------------------------|
|----------------------------------------|

Guitar II
|-----------------------------------------|
|-----------------------------------------|
|--2--------------------------------------|
|--2------2--------5------0---------------|
|--0------2--------5------0---------------|
|---------2--------5------0---------------|


Chorus

0:36

Guitar I
|-----------------------------------------------------|
|-----------------------------------------------------|
|--5-------2------5------2-------5-----2--------------|
|--5-------2------5------2-------5-----2-----0----3---|  x2
|--3-------0------3------0-------3-----0-----0----3---|
|--------------------------------------------0----3---|

Guitar II
|----------------------------------------|
|--/10-12-13-10-10~--/10-12-13-10-10~----|
|----------------------------------------|
|----------------------------------------|
|----------------------------------------|
|----------------------------------------|
                                             x2
|----------------------------------------|
|--/10-12-13-10-10~--10-/13-12-10-10~----|
|----------------------------------------|
|----------------------------------------|
|----------------------------------------|
|----------------------------------------|


Intro Riff

0:57

Guitar I
|----------------------------------------|
|---/10---12//13--12---/15-13\12---------|
|----------------------------------------|
|----------------------------------------|  x2
|----------------------------------------|
|----------------------------------------|

Guitar II
|----------------------------------------|
|----------------------------------------|
|----------------------------------------|
|---7------------6-----3-----------------|  x2
|---7------------6-----3-----------------|
|---7------------6-----3-----------------|


Guitar III
|----------------------------------------|
|---/10---12//13--12---/15-13\12---------|
|----------------------------------------|
|----------------------------------------|  x2
|----------------------------------------|
|----------------------------------------|


Verse 2

1:07

Guitar I
|--0------------------------------0-----------------------|
|--1------------------------------0-----------------------|
|--2------------------------------9-----------------------|
|--2------------------------------9-----------------------|
|--0------------------------------7-----------------------|
|---------------------------------------------------------|

|--0------------------------------0-----------------------|
|--1------------------------------1-----------------------|
|--2------------------------------2-----------------------|
|--2------------------------------2-----------------------|
|--0------------------------------0-----------------------|
|---------------------------------------------------------|

Guitar II
Staccato notes here
|--------------------------------------------------------------|
|-10-10---13p10---10-10-13p10--10-9-9---12p9---9-9-12p9--9-----|
|--------------------------------------------------------------|
|--------------------------------------------------------------|
|--------------------------------------------------------------|
|--------------------------------------------------------------|

|--------------------------------------------------------------|
|-10-10---13p10---10-10-13p10--10--10-10---13p10---10-10-13p10-|
|--------------------------------------------------------------|
|--------------------------------------------------------------|
|--------------------------------------------------------------|
|--------------------------------------------------------------|


Pre-chorus

1:18

Guitar I
|----------------------------------------|
|---/10---12//13--12---/15-13\12---------|
|----------------------------------------|
|----------------------------------------|  x2
|----------------------------------------|
|----------------------------------------|

Guitar II
|-----------------------------------------|
|-----------------------------------------|
|--2--------------------------------------|
|--2------2--------5------0---------------|
|--0------2--------5------0---------------|
|---------2--------5------0---------------|


Chorus

1:28

Guitar I
|-----------------------------------------------------|
|-----------------------------------------------------|
|--5-------2------5------2-------5-----2--------------|
|--5-------2------5------2-------5-----2-----0----3---|  x2
|--3-------0------3------0-------3-----0-----0----3---|
|--------------------------------------------0----3---|

Guitar II
|----------------------------------------|
|--/10-12-13-10-10~--/10-12-13-10-10~----|
|----------------------------------------|
|----------------------------------------|
|----------------------------------------|
|----------------------------------------|
                                              x2
|----------------------------------------|
|--/10-12-13-10-10~--10-/13-12-10-10~----|
|----------------------------------------|
|----------------------------------------|
|----------------------------------------|
|----------------------------------------|

Bridge


Guitar I
1:49
|-----------------------------------------------------|
|--/13--13h15p13\12~\---/12--12h13p12/10\\------------|
|-----------------------------------------------------|
|-----------------------------------------------------|
|-----------------------------------------------------|
|-----------------------------------------------------|
                                                         x2
|-----------------------------------------------------|
|--/12--12h13p12/10\\------/12--13--/15~\-------------|
|-----------------------------------------------------|
|-----------------------------------------------------|
|-----------------------------------------------------|
|-----------------------------------------------------|

Guitar II
1:59
|-----------------------------------------------------|
|--/17--17h18p17\15~\---/15--15h17p15/13\\------------|
|-----------------------------------------------------|
|-----------------------------------------------------|
|-----------------------------------------------------|
|-----------------------------------------------------|

|------------------------------------------//15///21--|
|--/15--15h17p15/13\\------/13--15--/17~\-------------|
|-----------------------------------------------------|
|-----------------------------------------------------|
|-----------------------------------------------------|
|-----------------------------------------------------|
                                              ^ This last slide
                                              is muted right at
                                              the end

Break

2:10

Guitars I and II
|-----------------------------------------------------|
|-----------------------------------------------------|
|-----------------------------------------------------|
|-----------------------------------------------------|
|-----------------------------------------------------|
|-000-000-000-000-000-000-000-000-000-000-000-000-000-|
  *** *** *** *** *** *** *** *** *** *** *** *** ***
   ^ You should get the idea, hopefully

|-----------------------------------------------------|
|-----------------------------------------------------|
|-----------------------------------------------------|
|-------------------------------------2--3--5---------|
|-------------------------------------2--3--5---------|
|-000-000-000-000-000-000-000-000-000-2--3--5---------|
  *** *** *** *** *** *** *** *** ***


Chorus

2:21

Guitar I
|-----------------------------------------------------|
|---10--------------------10--10--10~-----------------|
|-----------------------------------------------------|
|----------------------------------------0-----3------|
|----------------------------------------0-----3------|
|----------------------------------------0-----3------|

Guitar II
|-----------------------------------------------------|
|-----------------------------------------------------|
|-----------------------------------------------------|
|---7------------------------------------0-----3------|
|---7------------------------------------0-----3------|
|---7------------------------------------0-----3------|


Chorus

2:31

Guitar I
|-----------------------------------------------------|
|-----------------------------------------------------|
|--5-------2------5------2-------5-----2--------------|
|--5-------2------5------2-------5-----2-----0----3---|  x3
|--3-------0------3------0-------3-----0-----0----3---|
|--------------------------------------------0----3---|

Guitar II
|----------------------------------------|
|--/10-12-13-10-10~--/10-12-13-10-10~----|
|----------------------------------------|
|----------------------------------------|
|----------------------------------------|
|----------------------------------------|
                                               x3
|----------------------------------------|
|--/10-12-13-10-10~--10-/13-12-10-10~----|
|----------------------------------------|
|----------------------------------------|
|----------------------------------------|
|----------------------------------------|

3:02                    3:12
|--------------------|   |--------------------|
|--------------------|   |--------------------|
|--5-------2---------|   |--5-------2---------|
|--5-------2---------|   |--5-------2---------|
|--3-------0---------|   |--3-------0---------|
|--------------------|   |--------------------|


3:20

Guitar I
|--------------------|
|--/13-----13~~------|
|--------------------|
|--------------------|
|--------------------|
|--------------------|

Guitar  II
|--------------------|
|--------------------|
|--5-------2---------|
|--5-------2---------|
|--3-------0---------|
|--------------------|

Please rate and leave comments!!  Especially for improvements!


GALLOWS: PT-E

Tuning:Drop C

Intro
 Guitar 1  2x
|---------------------------------------------------------------------------|
|---------------------------------------------------------------------------|
|-0/---0-0-12-0-0-10-0-0-8-0-0-7-0-0-5-0-0-0-12-0-0-10-0-0-8-0-0-7-0-0-5----|
|---------------------------------------------------------------------------|
|---------------------------------------------------------------------------|
|---------------------------------------------------------------------------|

4x
 Guitar 1
|---------------------------------------------------------------------------|
|---------------------------------------------------------------------------|
|-0-0-12-0-0-10-0-0-8-0-0-7-0-0-5-0-0-0-12-0-0-10-0-0-8-0-0-7-0-0-5---------|
|---------------------------------------------------------------------------|
|---------------------------------------------------------------------------|
|---------------------------------------------------------------------------|
 Guitar 2
|---------------------------------------------------------------------------|
|---------------------------------------------------------------------------|
|-0-0-15-0-0-14-0-0-12-0-0-10-0-0-8-0-0-0-15-0-0-14-0-0-12-0-0-10-0-0-8-----|
|---------------------------------------------------------------------------|
|---------------------------------------------------------------------------|
|---------------------------------------------------------------------------|


Verse 2x
 Guitar 2
|-----------------------------------------------------------------------------|
|-----------------------------------------------------------------------------|
|-----------------------------------------------------------------------------|
|-1-1--1--1--1-1--1--1--3--1-1--1--1--1-1--1--1--3--5-------------------------|
|-1-1--1--1--1-1--1--1--3--1-1--1--1--1-1--1--1--3--5-------------------------|
|-1-1--1--1--1-1--1--1--3--1-1--1--1--1-1--1--1--3--5-------------------------|
  x x        x x           x x        x x
 Guitar 1
|-----------------------------------------------------------------------------|
|-----------------------------------------------------------------------------|
|---------------------------------------------3--5--7-7-7-5-5-8-8-8\7-7-7-7-5-|
|---------------------------------------------x--x--x-x-x-x-x-x-x-x-x-x-x-x-x-|
|---------------------------------------------1--3--5-5-5-3-3-6-6-6\5-5-5-5-3-|
|-----------------------------------------------------------------------------|


Pre-chorus
 Guitar 1
|---------------------------------------|
|---------------------------------------|
|-3--------5---------3---------5--------|
|-x--------x---------x---------x--------|
|-1--------3---------1---------3--------|
|---------------------------------------|
 Guitar 2
|---------------------------------------|
|---------------------------------------|
|---------------------------------------|
|-1--------3---------1---------3--------|
|-1--------3---------1---------3--------|
|-1--------3---------1---------3--------|

Chorus
 Guitar 1   1.2.3                          4.
|--------------------------------------|------------------------------------------|
|-151515151515151515151616161618181818-|-1515151515151515151513131313131511111111-|
|--------------------------------------|------------------------------------------|
|--------------------------------------|------------------------------------------|
|--------------------------------------|------------------------------------------|
|--------------------------------------|------------------------------------------|
 Guitar 2   1.2.3                          4.
|--------------------------------------|------------------------------------------|
|-111111111111111111111313131315151515-|-1111111111111111111110101010101188888----|
|--------------------------------------|------------------------------------------|
|--------------------------------------|------------------------------------------|
|--------------------------------------|------------------------------------------|
|--------------------------------------|------------------------------------------|
 Guitar 3
|---------------------------------------------------------------------------------|
|---------------------------------------------------------------------------------|
|-----------------5-5-5-5-5-5-5-5-------------------------------------------------|
|-1-1-1-1-1-1-1-1-5-5-5-5-5-5-5-5-5-5-5-5-5-5-5-5-8-8-8-8-8-8-8-8-----------------|
|-1-1-1-1-1-1-1-1-3-3-3-3-3-3-3-3-5-5-5-5-5-5-5-5-8-8-8-8-8-8-8-8-----------------|
|-1-1-1-1-1-1-1-1-----------------5-5-5-5-5-5-5-5-8-8-8-8-8-8-8-8-----------------|
 Guitar 3
|---------------------------------------------------------------------------------|
|---------------------------------------------------------------------------------|
|-----------------5-5-5-5-5-5-5-5-------------------------------------------------|
|-1-1-1-1-1-1-1-1-5-5-5-5-5-5-5-5--5--5--5-x-x-x-x--5--5--5-x-x-x-x-5-3-1------3--|
|-1-1-1-1-1-1-1-1-3-3-3-3-3-3-3-3--5--5--5-x-x-x-x--5--5--5-x-x-x-x-5-3-1------3--|
|-1-1-1-1-1-1-1-1------------------5--5--5-x-x-x-x--5--5--5-x-x-x-x-5-3-1------3--|


Solo
 Guitar 1
|---------------------------------------------------------------------------|
|-----------------------------------11~--13-15~---13--13~----15-15-15-13-13-|
|--3~--5-7~---8-7~----8-7--5-5~---------------------------------------------|
|---------------------------------------------------------------------------|
|---------------------------------------------------------------------------|
|---------------------------------------------------------------------------|
 Guitar 2
|---------------------------------------------------------------------------|
|---------------------------------------------------------------------------|
|-----------------------------------12~--14-15~---14--14~~---15-15-15-14-14-|
|--5~--7-8~--10-8~---10-8--7-7~---------------------------------------------|
|---------------------------------------------------------------------------|
|---------------------------------------------------------------------------|
 Guitar 3
|---------------------------------------------------------------------------|
|---------------------------------------------------------------------------|
|---------------------------------------------------------------------------|
|--5-----8------8-------3-----------5--------8---------3--------------------|
|--5-----8------8-------3-----------5--------8---------3--------------------|
|--5-----8------8-------3-----------5--------8---------3--------------------|


Verse
 Guitar 2
|-----------------------------------------------------------------------------|
|-----------------------------------------------------------------------------|
|-----------------------------------------------------------------------------|
|-1-1--1--1--1-1--1--1--3--1-1--1--1--1-1--1--1--3--5-------------------------|
|-1-1--1--1--1-1--1--1--3--1-1--1--1--1-1--1--1--3--5-------------------------|
|-1-1--1--1--1-1--1--1--3--1-1--1--1--1-1--1--1--3--5-------------------------|
  x x        x x           x x        x x
 Guitar 1   1. 2.                             3.
|--------------------------------------|--------------------------------------|
|--------------------------------------|--------------------------------------|
|--------------------------------------|------3--5--7-7-7-5-5-8-8-8\7-7-7-7-5-|
|-8-0000-7-0000-5-0000-7-00-8p7p5h7----|------x--x--x-x-x-x-x-x-x-x-x-x-x-x-x-|
|--------------------------------------|------1--3--5-5-5-3-3-6-6-6\5-5-5-5-3-|
|--------------------------------------|--------------------------------------|
    xxxx   xxxx   xxxx   xx

 Guitar 2
|-----------------------------------------------------------------------------|
|-----------------------------------------------------------------------------|
|-----------------------------------------------------------------------------|
|-1-1--1--1--1-1--1--1--3--1-1--1--1--1-1--1--1--3--5-------------------------|
|-1-1--1--1--1-1--1--1--3--1-1--1--1--1-1--1--1--3--5-------------------------|
|-1-1--1--1--1-1--1--1--3--1-1--1--1--1-1--1--1--3--5-------------------------|
  x x        x x           x x        x x
 Guitar 1   1. 2.                             3.
|--------------------------------------|--------------------------------------|
|--------------------------------------|--------------------------------------|
|-10-7777-8-7777-7-7777-8-77-10p8p7h8--|------3--5--7-7-7-5-5-8-8-8\7-7-7-7-5-|
|--------------------------------------|------x--x--x-x-x-x-x-x-x-x-x-x-x-x-x-|
|--------------------------------------|------1--3--5-5-5-3-3-6-6-6\5-5-5-5-3-|
|--------------------------------------|--------------------------------------|
     xxxx   xxxx   xxxx   xx

Pre-Chorus

Chorus

Solo 2.
 Guitar 1
|---------------------------------15----15--17----17--18\15-15---15---------|
|--8-----8--10----10--11\8--8--------15--------18---------------------------|
|-----7--------11-----------------------------------------------------------|
|---------------------------------------------------------------------------|
|---------------------------------------------------------------------------|
|---------------------------------------------------------------------------|
 Guitar2
|---------------------------------------------------------------------------|
|---------------------------------------------------------------------------|
|---------------------------------------------------------------------------|
|--1-1-1-1--3-3-3-3---8--5~-------1-1-1-1---3-3-3-3----8--5~----------------|
|--1-1-1-1--3-3-3-3---8--5~-------1-1-1-1---3-3-3-3----8--5~----------------|
|--1-1-1-1--3-3-3-3---8--5~-------1-1-1-1---3-3-3-3----8--5~----------------|

 Guitar 1
|---------------------------------------------------------------------------|
|--8--8--8--10-10-10-11-11-11--15---13---11-----8--8--8--10-10-10-----------|
|---------------------------------------------------------------------------|
|---------------------------------------------------------------------------|
|---------------------------------------------------------------------------|
|---------------------------------------------------------------------------|
 Guitar 3
|---------------------------------------------------------------------------|
|---------------------------------------------------------------------------|
|--8--8--8--11-11-11--7--7--7--15---14---10-----8--8--8--11-11-11-----------|
|------------------------------------------------------------------7b8-5----|
|---------------------------------------------------------------------------|
|---------------------------------------------------------------------------|
 Guitar 2
|---------------------------------------------------------------------------|
|---------------------------------------------------------------------------|
|---------------------------------------------------------------------------|
|--1-1-1-1---3-3-3-3---0-0-0-0---5-5-5-5--------1-1-1-1--0-0-0-0-----8-5----|
|--1-1-1-1---3-3-3-3---0-0-0-0---5-5-5-5--------1-1-1-1--0-0-0-0-----8-5----|
|--1-1-1-1---3-3-3-3---0-0-0-0---5-5-5-5--------1-1-1-1--0-0-0-0-----8-5----|

 Guitar 1
|---------------------------------------------------------------------------|
|-151515151515151515151616161618181818--------------------------------------|
|---------------------------------------------------------------------------|
|---------------------------------------------------------------------------|
|---------------------------------------------------------------------------|
|---------------------------------------------------------------------------|
 Guitar 2
|---------------------------------------------------------------------------|
|-111111111111111111111313131315151515--------------------------------------|
|---------------------------------------------------------------------------|
|---------------------------------------------------------------------------|
|---------------------------------------------------------------------------|
|---------------------------------------------------------------------------|


Chorus 2x


|---------------------------------------------------------------------------|
|---------------------------------------------------------------------------|
|---------------------------------------------------------------------------|
|--5--5--5-x-x-x--5--5--5-x-x-x--5--3--5\-----------------------------------|
|--5--5--5-x-x-x--5--5--5-x-x-x--5--3--5\-----------------------------------|
|--5--5--5-x-x-x--5--5--5-x-x-x--5--3--5\-----------------------------------|


STORM TO PASS: Drool_Mouse

Intro

Guitar I

0:00       0:11     0:13   0:17    0:20    0:23
|-----------------------------------------------------|
|-----------------------------------------------------|
|---9~~~---12~~~~---9~~~---12~~~----9~~~---12~~~------|
|-----------------------------------------------------|
|-----------------------------------------------------|
|-----------------------------------------------------|

This part continues to play through the intro, and stops
at the beginning of the verse.


Guitar II  (clean)
0:07
|-----------------------------------------------------------------|
|-----------------------------------------------------------------|
|-------12--------------12-----------------12----12----12---------|
|---14-----14------14------14---14----14-----14----14----14---14--|  x4
|-12--12------12-12---12------12---12----12----12----12----12-----|
|-----------------------------------------------------------------|


Guitar III  (clean)
0:13
|---------------------------------------------------------|
|---------------------------------------------------------|
|--------0-----------0------------5-----5-----5-5h7p5\4h5-|
|----2-----2-----2-----2------3-----3-----3---------------|  x3
|--0---0-----0-0---0------0-0---0-----0-----0-------------|
|---------------------------------------------------------|


Verse 1
0:33

Guitar I
|---------------------------------------------------------|
|---------------------------------------------------------|
|--------0-----------0------------5-----5-----------------|
|----2-----2-----2-----2------3-----3-----3---3-3h5p3\2h3-|  x2
|-000--0-----000---0------000---0-----0-----0-------------|
|---------------------------------------------------------|

Guitar II  (distorted)
0:33                   0:36
|-----------------------------------------------------|
|-----------------------------------------------------|
|-----------------------------------------------------|
|-2-2-2-2-2-2-2-2-2-2-2-------------------------------|   x2
|-0-0-0-0-0-0-0-0-0-0-0-3-3-3-3-3-3-3-3-3-3-3-3-3-3-3-|
|-----------------------3-3-3-3-3-3-3-3-3-3-3-3-3-3-3-|
  * * * * * * * * * * * * * * * * * * * * * * * * * *


Pre-chorus
0:46

Guitar I
|-/13--12-12-10---/13--12-12-----/12--10-10-8--/13--12-12--|
|----------------------------13----------------------------|
|----------------------------------------------------------|
|----------------------------------------------------------|
|----------------------------------------------------------|
|----------------------------------------------------------|

|-/13--12-12-10---/13--12-12-------------------------------|
|----------------------------13----------------------------|
|----------------------------------------------------------|
|----------------------------------------------------------|
|----------------------------------------------------------|
|----------------------------------------------------------|


Guitar II
|-----------------------------------------------------|
|-----------------------------------------------------|
|-----------------------------------------------------|
|--0------3-----7----10-------0-----3----7-----5------|
|--0------3-----7----10-------0-----3----7-----5------|
|--0------3-----7----10-------0-----3----7-----5------|


Chorus
0:58

Guitar I   (not the exact strum pattern)
|-----------------------------------------------------|
|-----------------------------------------------------|
|--17-17-17---12-12-12--14-14-14---10--9--7-----------|
|-----------------------------------------------------|
|--15-15-15---10-10-10--12-12-12---8---7--5-----------|
|-----------------------------------------------------|
                                                          x2
|-----------------------------------------------------|
|-----------------------------------------------------|
|--17-17-17---12-12-12--14-14-14---16-16-16-----------|
|-----------------------------------------------------|
|--15-15-15---10-10-10--12-12-12---14-14-14-----------|
|-----------------------------------------------------|


Guitar II
|-----------------------------------------------------|
|-----------------------------------------------------|
|-----------------------------------------------------|
|-7-7-7-7-7--2-2-2-2-2--3-3-3-3-3--0-0-0-0-0-0-0------|
|-7-7-7-7-7--2-2-2-2-2--3-3-3-3-3--0-0-0-0-0-0-0------|
|-7-7-7-7-7--2-2-2-2-2--3-3-3-3-3--0-0-0-0-0-0-0------|
                                                          x2
|-----------------------------------------------------|
|-----------------------------------------------------|
|-----------------------------------------------------|
|-7-7-7-7-7--2-2-2-2-2--3-3-3-3-3--5-5-5-5-5-5-5------|
|-7-7-7-7-7--2-2-2-2-2--3-3-3-3-3--5-5-5-5-5-5-5------|
|-7-7-7-7-7--2-2-2-2-2--3-3-3-3-3--5-5-5-5-5-5-5------|


Post-chorus
1:24

Guitar I (distorted)
|---------------------------------|
|---------------------------------|
|--------0----------------0-------|
|----2-----2---------2-------2----|
|-000--0---------000---0-------0--|
|---------------------------------|


Guitar II  (clean)
|---------------------------------|
|---------------------------------|
|-------12--------------12--------|
|---14-----14------14------14-----|
|-12--12------12-12---12------12--|
|---------------------------------|

Verse 2
1:27

Guitar I
|---------------------------------------------------------|
|---------------------------------------------------------|
|--------0-----------0------------5-----5-----5-5h7p5\4h5-|
|----2-----2-----2-----2------3-----3-----3---------------|  x2
|-000--0-----000---0------000---0-----0-----0-------------|
|---------------------------------------------------------|

Guitar II
|-----------------------------------------------------|
|-----------------------------------------------------|
|-----------------------------------------------------|
|-2-2-2-2-2-2-2-2-2-2-2-------------------------------|   x2
|-0-0-0-0-0-0-0-0-0-0-0-3-3-3-3-3-3-3-3-3-3-3-3-3-3-3-|
|-----------------------3-3-3-3-3-3-3-3-3-3-3-3-3-3-3-|
  * * * * * * * * * * * * * * * * * * * * * * * * * *


Pre-Chorus
1:40


Guitar I
|-/13--12-12-10---/13--12-12-----/12--10-10-8--/13--12-12--|
|----------------------------13----------------------------|
|----------------------------------------------------------|
|----------------------------------------------------------|
|----------------------------------------------------------|
|----------------------------------------------------------|

|-/13--12-12-10---/13--12-12-------------------------------|
|----------------------------13----------------------------|
|----------------------------------------------------------|
|----------------------------------------------------------|
|----------------------------------------------------------|
|----------------------------------------------------------|


Guitar II
|-----------------------------------------------------|
|-----------------------------------------------------|
|-----------------------------------------------------|
|--0------3-----7----10-------0-----3----7-----5------|
|--0------3-----7----10-------0-----3----7-----5------|
|--0------3-----7----10-------0-----3----7-----5------|


Chorus
1:53

Guitar I   (not the exact strum pattern)
|-----------------------------------------------------|
|-----------------------------------------------------|
|--17-17-17---12-12-12--14-14-14---10--9--7-----------|
|-----------------------------------------------------|
|--15-15-15---10-10-10--12-12-12---8---7--5-----------|
|-----------------------------------------------------|
                                                          x2
|-----------------------------------------------------|
|-----------------------------------------------------|
|--17-17-17---12-12-12--14-14-14---16-16-16-----------|
|-----------------------------------------------------|
|--15-15-15---10-10-10--12-12-12---14-14-14-----------|
|-----------------------------------------------------|


Guitar II
|-----------------------------------------------------|
|-----------------------------------------------------|
|-----------------------------------------------------|
|-7-7-7-7-7--2-2-2-2-2--3-3-3-3-3--0-0-0-0-0-0-0------|
|-7-7-7-7-7--2-2-2-2-2--3-3-3-3-3--0-0-0-0-0-0-0------|
|-7-7-7-7-7--2-2-2-2-2--3-3-3-3-3--0-0-0-0-0-0-0------|
                                                          x2
|-----------------------------------------------------|
|-----------------------------------------------------|
|-----------------------------------------------------|
|-7-7-7-7-7--2-2-2-2-2--3-3-3-3-3--5-5-5-5-5-5-5------|
|-7-7-7-7-7--2-2-2-2-2--3-3-3-3-3--5-5-5-5-5-5-5------|
|-7-7-7-7-7--2-2-2-2-2--3-3-3-3-3--5-5-5-5-5-5-5------|


Break
2:18
Guitar I
|--------------------------------------------|
|--------------------------------------------|
|-10101012-12-12-14-14-14-16-16-16--16-16-16-|
|--------------------------------------------|
|-8-8-8-10-10-10-12-12-12-14-14-14--14-14-14-|
|--------------------------------------------|

Guitar II
|---------------------------------------------------|
|---------------------------------------------------|
|---------------------------------------------------|
|-0-0-0--2-2-2--3-3-3--5-5-5--5--5-5-5--------------|
|-0-0-0--2-2-2--3-3-3--5-5-5--5--5-5-5--------------|
|-0-0-0--2-2-2--3-3-3--5-5-5--5--5-5-5--------------|


Guitar I
|-----------------------------------------------------|
|-----------------------------------------------------|
|-16--17-17--16-17----17-17-16-16-17-17-1616-17-16-17-|
|-----------------------------------------------------|
|-14--15-15--14-15----15-15-14-14-15-15-1414-15-14-15-|
|-----------------------------------------------------|

|------------------------------|
|------------------------------|
|-17-17--16-16-17\\------------|
|------------------------------|
|-15-15--14-14-15\\------------|
|------------------------------|


Guitar II
|-----------------------------------------------------|
|-----------------------------------------------------|
|-----------------------------------------------------|
|--5---7--7--5---7----7--7--5-5---7--7--5-5--7--5--7--|
|--5---7--7--5---7----7--7--5-5---7--7--5-5--7--5--7--|
|--5---7--7--5---7----7--7--5-5---7--7--5-5--7--5--7--|

|-------------------------------|
|-------------------------------|
|-------------------------------|
|--7--7---5-5--7\\--------------|
|--7--7---5-5--7\\--------------|
|--7--7---5-5--7\\--------------|


Pre-Solo
2:28

Guitar I
|-------------------------------------------------------|
|-13-13-13-15-15-15-17-17-17-18-18-18-20-20-20-22-22-22-|
|-------------------------------------------------------|
|-10-10-10-12-12-12-14-14-14-15-15-15-17-17-17-19-19-19-|
|-------------------------------------------------------|
|-------------------------------------------------------|

Guitar II
|-----------------------------------------------------|
|-----------------------------------------------------|
|-----------------------------------------------------|
|-2-2-2-4-4-4-5-5-5-7-7-7-9-9-9-10-10-10-10-10--------|
|-0-0-0-2-2-2-3-3-3-5-5-5-7-7-7-8--8--8--8--8---------|
|-----------------------------------------------------|

Solo   Please offer suggestions - still a good work in progress
2:34

|-20b21-20p19----17---17---17-17~-------------------------------------------|
|------------h20--------------------17h20p19p17h20p19-17h20p19p17h20p19-----|
|---------------------------------------------------------------------------|
|---------------------------------------------------------------------------|
|---------------------------------------------------------------------------|
|---------------------------------------------------------------------------|


|---------------------------------------------------------------------------|
|-17h20/22-20-19-------17----17~--------------------------------------------|
|----------------21-19----19------------------------------------------------|
|---------------------------------12b13r12-10-------------------------------|
|---------------------------------------------12-10-12~--10-----------------|
|-----------------------------------------------------------14-12-10-9-7~---|
                                                            *  *  *  * *

2:43
|--/20p19p17h20p19p17h20p19p17h20p19p17---17----17~-17~--17----17~----------|
|--------------------------------------------20-------------20--------------|
|---------------------------------------------------------------------------|
|---------------------------------------------------------------------------|
|---------------------------------------------------------------------------|
|---------------------------------------------------------------------------|

|--17--13-12-13-12----------------------------------------------------------|
|------------------15\\-----------------------------------------------------|
|-----------------------//14@-----------------------------------------------|
|-----------------------------9h10p9h10-10h12p10h12-12h14p12h14-9h10p9h10---|
|---------------------------------------------------------------------------|
|---------------------------------------------------------------------------|
                        ^ Maybe a whammy bar dive


|---------------------------------------------------------------------------|
|---------------------------------------------------------------------------|
|-----------------------------------12@-------------------------------------|
|--10h12p10h12--14-12-----15--12------------------12h14p12------12----------|
|---------------------15---------15--------12h15------------h15-------------|
|---------------------------------------------------------------------------|

|---------------------------------------------------------------------------|
|----------------------------------17-15-17-15-13---------------------------|
|-------------------------------------------------16--14-16-14-16-----------|
|-12\10/12/14\12/14/15\14/15--17@-------------------------------------------|
|---------------------------------------------------------------------------|
|---------------------------------------------------------------------------|


|---------------------------------------------------------------------------|
|---------------------------------------------------------------------------|
|---13h15p13h15-12h14p12h14-10h12p10h12--9h11p9h11\\--///14~~---------------|
|---------------------------------------------------------------------------|
|---------------------------------------------------------------------------|
|---------------------------------------------------------------------------|


Solo Rhythm
2:34
|---------------------------------------|     |-------|
|---------------------------------------|     |-------|
|--------------------7------10----------|     |-------|
|--7--------10-------7------10----------|  x2 |---7---|
|--7--------10-------5------8-----------|     |---7---|
|--7--------10--------------------------|     |---7---|


Bridge
3:00

Guitar I  (clean)
|-----------------------------------------------------------------|
|-----------------------------------------------------------------|
|-------12--------------12-----------------12----12----12---------|
|---14-----14------14------14---14----14-----14----14----14---14--|  x2
|-12--12------12-12---12------12---12----12----12----12----12-----|
|-----------------------------------------------------------------|

Guitar II (clean)
|---------------------------------------------------------|
|---------------------------------------------------------|
|--------0-----------0------------5-----5-----5-5h7p5\4h5-|
|----2-----2-----2-----2------3-----3-----3---------------|  x2
|--0---0-----0-0---0------0-0---0-----0-----0-------------|
|---------------------------------------------------------|

Guitar III (pretty much Guitar I, just Guitar I is dubbed here)
|--/20--19---17--15----|
|----------------------|
|----------------------|
|----------------------|
|----------------------|
|----------------------|

Guitar II (pretty much Guitar II, just Guitar I is dubbed here)
|--/17--15---13--12----|
|----------------------|
|----------------------|
|----------------------|
|----------------------|
|----------------------|

Chorus
3:13

Guitar I   (not the exact strum pattern)
|-----------------------------------------------------|
|-----------------------------------------------------|
|--17-17-17---12-12-12--14-14-14---10--9--7-----------|
|-----------------------------------------------------|
|--15-15-15---10-10-10--12-12-12---8---7--5-----------|
|-----------------------------------------------------|
                                                          x2
|-----------------------------------------------------|
|-----------------------------------------------------|
|--17-17-17---12-12-12--14-14-14---16-16-16-----------|
|-----------------------------------------------------|
|--15-15-15---10-10-10--12-12-12---14-14-14-----------|
|-----------------------------------------------------|


Guitar II
|-----------------------------------------------------|
|-----------------------------------------------------|
|-----------------------------------------------------|
|-7-7-7-7-7--2-2-2-2-2--3-3-3-3-3--0-0-0-0-0-0-0------|
|-7-7-7-7-7--2-2-2-2-2--3-3-3-3-3--0-0-0-0-0-0-0------|
|-7-7-7-7-7--2-2-2-2-2--3-3-3-3-3--0-0-0-0-0-0-0------|
                                                          x2
|-----------------------------------------------------|
|-----------------------------------------------------|
|-----------------------------------------------------|
|-7-7-7-7-7--2-2-2-2-2--3-3-3-3-3--5-5-5-5-5-5-5------|
|-7-7-7-7-7--2-2-2-2-2--3-3-3-3-3--5-5-5-5-5-5-5------|
|-7-7-7-7-7--2-2-2-2-2--3-3-3-3-3--5-5-5-5-5-5-5------|

Ending
3:38

Guitar I
|-----------------------------------------------------|
|-----------------------------------------------------|
|-16--17-17--16-17--------17-17--16--17-17--16-17-----|
|-----------------------------------------------------|
|-14--15-15--14-15--------15-15--14--15-15--14-15-----|
|-----------------------------------------------------|

|-----------------------------------------------------|
|-----------------------------------------------------|
|--17-17--16--17\\\-----------------------------------|
|-----------------------------------------------------|
|--15-15--14--15\\\-----------------------------------|
|-----------------------------------------------------|


Guitar II
|-----------------------------------------------------|
|-----------------------------------------------------|
|-----------------------------------------------------|
|--5---7--7--5---7---------7--7---5---7--7--5--7------|
|--5---7--7--5---7---------7--7---5---7--7--5--7------|
|--5---7--7--5---7---------7--7---5---7--7--5--7------|

|-----------------------------------------------------|
|-----------------------------------------------------|
|-----------------------------------------------------|
|--7--7---5---7---------------------------------------|
|--7--7---5---7---------------------------------------|
|--7--7---5---7---------------------------------------|


YOU WERE THE KING, NOW YOU'RE UNCONSCIOUS - PT-E

Tuning:Drop C

the lead guitar from chorus is still missing


Intro
 1x                  7x
|-------------------|-----------------------|
|-------------------|-----------------------|
|-------------------|-----------------------|
|-0---------0-0-0-0-|-1--0--------0-0-0-0---|
|-0---------0-0-0-0-|-1--0--------0-0-0-0---|
|-0----12\--0-0-0-0-|-1--0---12\--0-0-0-0---|
            x x x                 x x x
Intro (part2)
 2x
|---------------------------------------------------------------------------|
|---------------------------------------------------------------------------|
|---------------------------------------------------------------------------|
|---------------------------------------------------------------------------|
|---------------------------------------------------------------------------|
|-0-0-12-0-0-15-0-0-12-0-0-12\11-11-11-11-11-12\8-8-8-8-8-------------------|

|---------------------------------------------------------------------------|
|---------------------------------------------------------------------------|
|---------------------------------------------------------------------------|
|---------------------------------------------------------------------------|
|---------------------------------------------------------------------------|
|-0-0-12-0-0-15-0-0-12-0-0 12p11-0-11p10-0-10p8-o-8p7-----------------------|

Verse
Guitar 1
|---------------------------------------------------------------------------|
|---------------------------------------------------------------------------|
|-7-7-7-7-7-7-7-7-7-7-7-7-7-7-7-5-5-5-5-5-5-5-5-5-5-3-3-3-3-3-3-3-3-3-3-3---|
|-x-x-x-x-x-x-x-x-x-x-x-x-x-x-x-x-x-x-x-x-x-x-x-x-x-x-x-x-x-x-x-x-x-x-x-x---|
|-5-5-5-5-5-5-5-5-5-5-5-5-5-5-5-3-3-3-3-3-3-3-3-3-3-1-1-1-1-1-1-1-1-1-1-1---|
|---------------------------------------------------------------------------|
Guitar 2
|--------------------------------------------------------------------------|
|--------------------------------------------------------------------------|
|--------------------------------------------------------------------------|
|-0--0--0--0-0-0-0---0--0--0-0-0-0---0--0--0-0-0--0--0--0-0-0--0--0--0-0-0-|
|-0--0--0--0-0-0-0---0--0--0-0-0-0---0--0--0-0-0--0--0--0-0-0--0--0--0-0-0-|
|-0--0--0--0-0-0-0---0--0--0-0-0-0---0--0--0-0-0--0--0--0-0-0--0--0--0-0-0-|
     x  x  x x x     x  x  x x x     x  x  x x x  x  x  x x x  x  x  x x x

Guitar 1
|---------------------------------------------------------------------------|
|---------------------------------------------------------------------------|
|-7-7-7-7-7-7-7-7-7-7-7-7-7-7-7--5--------9----10----15---14----------------|
|-x-x-x-x-x-x-x-x-x-x-x-x-x-x-x--x--------x----x-----x----x-----------------|
|-5-5-5-5-5-5-5-5-5-5-5-5-5-5-5--3--------7----8-----13---12----------------|
|---------------------------------------------------------------------------|
Guitar 2
|---------------------------------------------------------------------------|
|---------------------------------------------------------------------------|
|--------------------------------5~------------------3~---------------------|
|-0--0--0--0-0-0-0---0--0--0-0-0-5~------------------3~---------------------|
|-0--0--0--0-0-0-0---0--0--0-0-0-3~------------------1~---------------------|
|-0--0--0--0-0-0-0---0--0--0-0-0--------------------------------------------|
     x  x  x x x     x  x  x x x

Guitar 1
|---------------------------------------------------------------------------|
|---------------------------------------------------------------------------|
|-7-7-7-7-7-7-7-7-7-7-7-7-7-7-7-5-5-5-5-5-5-5-5-5-5-3-3-3-3-3-3-3-3-3-3-3---|
|-x-x-x-x-x-x-x-x-x-x-x-x-x-x-x-x-x-x-x-x-x-x-x-x-x-x-x-x-x-x-x-x-x-x-x-x---|
|-5-5-5-5-5-5-5-5-5-5-5-5-5-5-5-3-3-3-3-3-3-3-3-3-3-1-1-1-1-1-1-1-1-1-1-1---|
|---------------------------------------------------------------------------|
Guitar 2
|--------------------------------------------------------------------------|
|--------------------------------------------------------------------------|
|--------------------------------------------------------------------------|
|-0--0--0--0-0-0-0---0--0--0-0-0-0---0--0--0-0-0--0--0--0-0-0--0--0--0-0-0-|
|-0--0--0--0-0-0-0---0--0--0-0-0-0---0--0--0-0-0--0--0--0-0-0--0--0--0-0-0-|
|-0--0--0--0-0-0-0---0--0--0-0-0-0---0--0--0-0-0--0--0--0-0-0--0--0--0-0-0-|
     x  x  x x x     x  x  x x x     x  x  x x x  x  x  x x x  x  x  x x x

Pre-chorus
|---------------------------------------|
|---------------------------------------|
|-3-------------5------6----------------|
|-3-------------5------6----------------|
|-1-------------3------4----------------|
|---------------------------------------|

Chorus 2x
|-------------------------------------|--------------------------------------|
|-------------------------------------|--------------------------------------|
|-3--------------------2--------------|-3----------------2-2-2-2-2-2-2-2-2---|
|-3---------3----------2-----------0--|-3--------3-------2-2-2-2-2-2-2-2-2---|
|-1---------3----------0-----------0--|-1--------3-------0-0-0-0-0-0-0-0-0---|
|-----------3----------------------0--|----------3---------------------------|


Intro (part2) 1x


Verse 5x


Chorus 2x

Guitar 2
 1x                  8x
|------------------|-----------------------|
|------------------|-----------------------|
|------------------|-----------------------|
|-0--------0-0-0-0-|-1--0--------0-0-0-0---|
|-0--------0-0-0-0-|-1--0--------0-0-0-0---|
|-0---12\--0-0-0-0-|-1--0---12\--0-0-0-0---|
           x x x                 x x x

Guitar 1 3x
|------------------------------------------------------|
|------------------------------------------------------|
|------------------------------------------------------|
|-0-0-12-0-0-15-0-0-12-0-0-15-0-0-12-0-0-14-0-0-12-0-0-|
|------------------------------------------------------|
|------------------------------------------------------|
Guitar 3 1x
|------------------------------------------------------|
|------------------------------------------------------|
|------------------------------------------------------|
|-0-0-15-0-0-19-0-0-15-0-0-19-0-0-15-0-0-17-0-0-15-0-0-|
|------------------------------------------------------|
|------------------------------------------------------|

Guitar 1
|----------------------------------------------------------|
|---------------------------------------------------15-----|
|----------------------------------------12---12h14--------|
|-0-0-12-0-0-15-0-0-12-0-0-12h14h15-14h15---15-------------|
|----------------------------------------------------------|
|----------------------------------------------------------|
Guitar 3
|----------------------------------------------------------|
|---------------------------------------------------15-----|
|-------------------------------14---14h15-14h15h17--------|
|-0-0-15-0-0-19-0-0-15-0-0-15h17---17----------------------|
|----------------------------------------------------------|
|----------------------------------------------------------|


Pre-chorus


Chorus 3x


Outro
|---------------------------------------------------------------------------|
|---------------------------------------------------------------------------|
|---------------------------------------------------------------------------|
|---------------------------------------------------------------------------|
|---------------------------------------------------------------------------|
|-0-0-12-0-0-15-0-0-12-0-0-12\11-11-11-11-11-12\8-8-8-8-8-------------------|

|---------------------------------------------------------------------------|
|---------------------------------------------------------------------------|
|---------------------------------------------------------------------------|
|-------------------------------------------------------------0-------------|
|-------------------------------------------------------------0-------------|
|-0-0-12-0-0-15-0-0-12-0-0 12p11-0-11p10-0-10p8-o-8p7-0-3-3-3-0-------------|
Добавлено: 02.07.2012
Другие материалы по этой песне:
  • Аккорды и текст

Страница создана 02.07.2012
http://primanota.ru/atreyu/congregation-of-the-damned-album-chords.htm
Привет, Гость.
Предлагаем пройти революционный курс по гитаре.
Подарок от PrimaNota.Ru, забирай!