PrimaNota.ru - самый крупный в мире бесплатный архив песенных текстов, аккордов, табулатур и нот


Atreyu - Clean Sheets - таба, видео

Регистрация Запомнить меня
Войти через:  Facebook Google Twitter Vk Yandex Mail.ru

Atreyu - Clean Sheets - таба, видео

Печатать
Просмотров: 163
Уроки эстрадного вокала в Санкт-Петербурге
Atreyu
Clean Sheets
Drop C:CGCFAD

Legend:
r=let ring
~=vibrato
b=bend

Solo:

D----------------------------------------------|
A-----------------------7-5-4-5-7-5-4----------|
F----------------9-7-9-------------------------|
C---------5-4-5--------------------------------|
G--7-5-7---------------------------------------|
C----------------------------------------------|

D-9-7-5-4-5-2-5-0r-5-4-2-0-2---------0---4-0---5r-------|
A-----------------------------3~~-2-2---2-----2---------|
F-------------------------------------------------------|
C-------------------------------------------------------|
G-------------------------------------------------------|
C-------------------------------------------------------|

D-5-5-5-5-4-4-4-4-0r-5-4-0r-9-9-9-9-7-7-7-7-5-5-5-5-5--5-5---|
A------------------------------------------------------------|
F------------------------------------------------------------|
C------------------------------------------------------------|
G------------------------------------------------------------|
C------------------------------------------------------------|

D-9-9-12-9-16-12-14-17b--------------------------|
A------------------------------------------------|
F------------------------------------------------|
C------------------------------------------------|
G------------------------------------------------|
C------------------------------------------------|

Enjoy!!!!!

-atreyu_ja@hotmail.com-
JA
Добавлено: 30.07.2012
Другие материалы по этой песне:

Страница создана 06.03.2012
http://primanota.ru/atreyu/clean-sheets-chords.htm
Привет, Гость.
Предлагаем пройти революционный курс по гитаре.
Подарок от PrimaNota.Ru, забирай!