PrimaNota.ru - самый крупный в мире бесплатный архив песенных текстов, аккордов, табулатур и нот


Atreyu - Cant Happen Here - таба, видео

Регистрация Запомнить меня
Войти через:  Facebook Google Twitter Vk Yandex Mail.ru

Atreyu - Cant Happen Here - таба, видео

Печатать
Просмотров: 200
Уроки эстрадного вокала в Санкт-Петербурге
Really catchy solo
easy too

DROP C (CGCFAD)

guitar 1 (2:14)

D|--------------------------------------------------------|
A|--8-10-8-------8-10-8--------8-10-8----11-10-8----8-10--|
F|---------10-----------10------------10---------10-------|
C|--------------------------------------------------------|
G|--------------------------------------------------------|
C|--------------------------------------------------------|

guitar 2 (2:14)

D|--------------------------------------------------------|
A|--5-6-5--------5-6-5---------5-6-5---8-6-5---5-6--------|
F|--------7------------7-------------7-------7------------|
C|--------------------------------------------------------|
G|--------------------------------------------------------|
C|--------------------------------------------------------|



guitar 1 (2:24)

D|--15-17-15--------17b-15-------------------------------------|
A|-----------18\------------17b\-------------------------------|
F|---------------------------------------9----------12---------|
C|---------------------------------12---------121415-----------|
G|-------------------------------------------------------------|
C|-------------------------------------------------------------|

D|-------------------------------------------------------------|
A|-------------------------------------------------------------|
F|----------------------------19b------------------------------|
C|--121415121415-----------------------------------------------|
G|-------------------------------------------------------------|
C|-------------------------------------------------------------|

guitar 2 (2:24)

D|--12-13-12--------13b-12-------------------------------------|
A|-----------15\------------15b\-------------------------------|
F|-----------------------------------------10-------------1214-|
C|------------------------------------14--------------1415-----|
G|-------------------------------------------------------------|
C|-------------------------------------------------------------|

D|-------------------------------------------------------------|
A|-------------------------------------------------------------|
F|----------------------------19b------------------------------|
C|--------------141517141517-----------------------------------|
G|-------------------------------------------------------------|
C|-------------------------------------------------------------|

guitar 3 (overdubbed) 

D|--------------------------------------------------------|
A|--------------------------------------------------------| 
F|777777777777733333333333333---------33333333333333333333|   X2
C|77777777777773333333333333355555555533333333333333333333|
G|55555555555551111111111111155555555511111111111111111111|
C|---------------------------555555555--------------------|
Добавлено: 24.04.2012
Другие материалы по этой песне:

Страница создана 10.04.2012
http://primanota.ru/atreyu/cant-happen-here-chords.htm
Привет, Гость.
Предлагаем пройти революционный курс по гитаре.
Подарок от PrimaNota.Ru, забирай!