PrimaNota.ru - самый крупный в мире бесплатный архив песенных текстов, аккордов, табулатур и нот


Atreyu - Bleeding Hearts Shed No Tears - текст песни, таба, бас-таба, видео

Регистрация Запомнить меня
Войти через:  Facebook Google Twitter Vk Yandex Mail.ru

Atreyu - Bleeding Hearts Shed No Tears - текст песни, таба, бас-таба, видео

Печатать
Просмотров: 113
Tabbed by:Chad Porteous
E-mail if you want/need:short_sk8er54@hotmail.com

I went on this website to find a tab for this song and there weren't any, so I decided to tab it.

I could only figure out the one guitar.

Intro
e|----------------------------------------------------------------|
B|----------------------------------------------------------------|
G|-------------------------------------0--------------------------|
D|-----4----4---4-----4----4---4----4------4---------4----4---4---|
A|--2----2----2-----------------------------------0----0----0-----|
E|-----------------2----2----2----3-----------3-------------------|

e|----------------------------------------------------------------|
B|----------------------------------------------------------------|
G|-------------------------------------0--------------------------|
D|-----4----4---4-----4----4---4----4------4---------4----4---4---|
A|--2----2----2-----------------------------------0----0----0-----|
E|-----------------2----2----2----3-------------------------------|

e|----------------------------------------------------------------|
B|----------------------------------------------------------------|
G|-------------------------------------0--------------------------|
D|-----4----4---4-----4----4---4----4------4---------4----4---4---|
A|--2----2----2-----------------------------------0----0----0-----|
E|-----------------2----2----2----3-----------3-------------------|

e|----------------------------------------------------------------|
B|----------------------------------------------------------------|
G|----------------------------------------------------------------|
D|-----4----4---4-----4----4---4-----4----4---4-----4----4---4----|
A|--2----2----2----------------------------------0----0----0------|
E|-----------------2----2----2----3----3----3---------------------|

e|------|
B|------|
G|--4~--|
D|--4~--|
A|--2~--|
E|------|

Verse
e|------------------------------------------------------------------------|
B|------------------------------------------------------------------------|
G|--4-444-444-444444------------------------------------------------------|
D|--4-444-444-444444-4-444-444-444444-5-555-555-555555-7-777-777-777777---|
A|--2-222-222-222222-4-444-444-444444-5-555-555-555555-7-777-777-777777---|
E|-------------------2-222-222-222222-3-333-333-333333-5-555-555-555555---|
    . ... ... ...... . ... ... ...... . ... ... ...... . ... ... ......
e|------------------------------------------------------------------------|
B|------------------------------------------------------------------------|
G|--4-444-444-444444------------------------------------------------------|
D|--4-444-444-444444-4-444-444-444444-5-555-555-555555-7-777-777-7--------|
A|--2-222-222-222222-4-444-444-444444-5-555-555-555555-7-777-777-7--------|
E|-------------------2-222-222-222222-3-333-333-333333-5-555-555-5--------|
    . ... ... ...... . ... ... ...... . ... ... ...... . ... ... .
Pre-Chorus
e|-------------------------------------|
B|-------------------------------------|
G|--4-44-4-----------------------------|
D|--4-44-4--4-44-4--5-55-5--7-77-7-----| x2
A|--2-22-2--4-44-4--5-55-5--7-77-7-----|
E|----------2-22-2--3-33-3--5-55-5-----|
      ..      ..      ..      ..
Chorus
e|-----------------------------------|
B|-----------------------------------|
G|--4-4444-4444444-------------------|
D|--4-4444-4444444--4-444-5-555555---| x4
A|--2-2222-2222222--4-444-5-555555---|
E|------------------2-222-3-333333---|

Verse
e|------------------------------------------------------------------------|
B|------------------------------------------------------------------------|
G|--4-444-444-444444------------------------------------------------------|
D|--4-444-444-444444-4-444-444-444444-5-555-555-555555-7-777-777-777777---|
A|--2-222-222-222222-4-444-444-444444-5-555-555-555555-7-777-777-777777---|
E|-------------------2-222-222-222222-3-333-333-333333-5-555-555-555555---|
    . ... ... ...... . ... ... ...... . ... ... ...... . ... ... ......
e|------------------------------------------------------------------------|
B|------------------------------------------------------------------------|
G|--4-444-444-444444------------------------------------------------------|
D|--4-444-444-444444-4-444-444-444444-5-555-555-555555-7-777-777-7--------|
A|--2-222-222-222222-4-444-444-444444-5-555-555-555555-7-777-777-7--------|
E|-------------------2-222-222-222222-3-333-333-333333-5-555-555-5--------|
    . ... ... ...... . ... ... ...... . ... ... ...... . ... ... .
Pre-Chorus
e|-------------------------------------|
B|-------------------------------------|
G|--4-44-4-----------------------------|
D|--4-44-4--4-44-4--5-55-5--7-77-7-----| x2
A|--2-22-2--4-44-4--5-55-5--7-77-7-----|
E|----------2-22-2--3-33-3--5-55-5-----|
      ..      ..      ..      ..
Chorus
e|-----------------------------------|
B|-----------------------------------|
G|--4-4444-4444444-------------------|
D|--4-4444-4444444--4-444-5-555555---| x8
A|--2-2222-2222222--4-444-5-555555---|
E|------------------2-222-3-333333---|

Bridge
e|------|
B|------|
G|--4~--|
D|--4~--|
A|--2~--|
E|------|

e|---------------------------------------------------|
B|---------------------------------------------------|
G|--4---------------------4--------------------------|
D|--4--4-4-5----7-7-5-4---4--4-4-5----2-22--4-4-5----| x4
A|--2--4-4-5----7-7-5-4---2--4-4-5----2-22--4-4-5----|
E|-----2-2-3----5-5-3-2------2-2-3----0-00--2-2-3----|
                                      . ..
e|------|
B|------|
G|--4~--|
D|--4~--|
A|--2~--|
E|------|

Verse
e|------------------------------------------------------------------------|
B|------------------------------------------------------------------------|
G|--4-444-444-444444------------------------------------------------------|
D|--4-444-444-444444-4-444-444-444444-5-555-555-555555-7-777-777-777777---|
A|--2-222-222-222222-4-444-444-444444-5-555-555-555555-7-777-777-777777---|
E|-------------------2-222-222-222222-3-333-333-333333-5-555-555-555555---|
    . ... ... ...... . ... ... ...... . ... ... ...... . ... ... ......
e|------------------------------------------------------------------------|
B|------------------------------------------------------------------------|
G|--4-444-444-444444------------------------------------------------------|
D|--4-444-444-444444-4-444-444-444444-5-555-555-555555-7-777-777-7--------|
A|--2-222-222-222222-4-444-444-444444-5-555-555-555555-7-777-777-7--------|
E|-------------------2-222-222-222222-3-333-333-333333-5-555-555-5--------|
    . ... ... ...... . ... ... ...... . ... ... ...... . ... ... .
Pre-Chorus
e|-------------------------------------|
B|-------------------------------------|
G|--4-44-4-----------------------------|
D|--4-44-4--4-44-4--5-55-5--7-77-7-----| x2
A|--2-22-2--4-44-4--5-55-5--7-77-7-----|
E|----------2-22-2--3-33-3--5-55-5-----|
      ..      ..      ..      ..
Chorus
e|-----------------------------------|
B|-----------------------------------|
G|--4-4444-4444444-------------------|
D|--4-4444-4444444--4-444-5-555555---| x8
A|--2-2222-2222222--4-444-5-555555---|
E|------------------2-222-3-333333---|

e|------|
B|------|
G|--4~--|
D|--4~--|
A|--2~--|
E|------|

I think it's all right. Enjoy
Добавлено: 10.10.2013
Другие материалы по этой песне:
  • Аккорды и текст

Страница создана 06.06.2012
http://primanota.ru/atreyu/bleeding-hearts-shed-no-tears-chords.htm
Привет, Гость.
Предлагаем пройти революционный курс по гитаре.
Подарок от PrimaNota.Ru, забирай!