PrimaNota.ru - самый крупный в мире бесплатный архив песенных текстов, аккордов, табулатур и нот


Atreyu - Black Days Begin - таба, видео

Регистрация Запомнить меня
Войти через:  Facebook Google Twitter Vk Yandex Mail.ru

Atreyu - Black Days Begin - таба, видео

Печатать
Просмотров: 112
-------------------- *Black Days Begin - Atreyu* -------------------------

Tabbed by:CJ Wilcox

Check out: www.myspace.com/7cj7rocks7
       www.myspace.com/twilightbeforesunrise

---If you have not purchased this entire album, do so 
RIGHT NOW! Every song is absolutely amazing.

Tuning: Drop C (CGCFAD)

INTRO-

Guitars 2+3:
D|--------------------------------------------------|
A|--------------------------------------------------|
F|--------------------------------------------------|
C|--------------------------------------------------|
G|--0---0-0--0-0--0-3--0---0-0--0-0------3-4-5------|
C|--0---0-0--0-0--0-3--0---0-0--0-0--3p0------------|

Guitars 2+3:
D|--------------------------------------------------|
A|--------------------------------------------------|
F|--------------------------------------------------|
C|--------------------------------5-4-3-------------|
G|--0-0--0-0--0-3-0---------5-4-3-------3-4-5-------|
C|--0-0--0-0--0-3-0---5-4-3-------------------------|

................................................................

Guitar 1:
D|--------------------------------------------------|
A|--------------------------------------------------|
F|--14-14-14--17--17-17--16--16-16--15--15-15-------|
C|--x--x--x---x---x--x---x---x--x---x---x--x--------|
G|--12-12-12--15--15-15--14--14-14--13--13-13-------|
C|--------------------------------------------------|

Guitars 2+3:
D|--------------------------------------------------|
A|--------------------------------------------------|
F|--------------------------------------------------|
C|--------------------------------------------------|
G|--0---0-0--0-0--0-3--0---0-0--0-0------3-4-5------|
C|--0---0-0--0-0--0-3--0---0-0--0-0--3p0------------|

............................................................

Guitar 1:
D|--------------------------------------------------|
A|--------------------------------------------------|
F|--14--14-14--17--17-17--16--16-16--15--15-15------|
C|--x---x--x---x---x--x---x---x--x---x---x--x-------|
G|--12--12-12--15--15-15--14--14-14--13--13-13------|
C|--------------------------------------------------|

Guitars 2+3:
D|--------------------------------------------------|
A|--------------------------------------------------|
F|--------------------------------------------------|
C|--------------------------------5-4-3-------------|
G|--0-0--0-0--0-3-0---------5-4-3-------3--5--------|
C|--0-0--0-0--0-3-0--5-4-3--------------------------|

VERSE 1-

Guitar 1:
D|--------------------------------------------------|
A|--------------------------------------------------|
F|--14----------------------------------------------|
C|--x-----------------------------------------------|
G|--12----------------------------------------------|
C|--------------------------------------------------|
   (hold and fade out)

Bass (arranged for guitar):
D|--------------------------------------------------|
A|--------------------------------------------------|
F|--------------------------------------------------|
C|--------------------------------------------------|
G|--------------------------------------------------|
C|--0-0--0-0--0-0--0-0--0-0--0-0--0-0--0-3--0-------|

.........................................................

Bass (arranged for guitar):
D|--------------------------------------------------|
A|--------------------------------------------------|
F|--------------------------------------------------|
C|--------------------------------------------------|
G|------------------------------------3-4-5\--------|
C|--0-0--0-0--0-0--0-0--0-0--0-0--3p0---------------|

..........................................................

Guitar 1:
D|--------------------------------------------------|
A|--------------------------------------------------|
F|--------------------------------------------------|
C|--------------------------------------------------|
G|---5----------------------------------------------|
C|--------------------------------------------------|
  (N.H.[D] - fade in)

Guitar 2:
D|--------------------------------------------------|
A|--------------------------------------------------|
F|--------------------------------------------------|
C|---3----------------------------------------------|
G|--------------------------------------------------|
C|--------------------------------------------------|
  (N.H.[F] - fade in)

Bass (arranged for guitar):
D|--------------------------------------------------|
A|--------------------------------------------------|
F|--------------------------------------------------|
C|--------------------------------------------------|
G|--------------------------------------------------|
C|--0--0-0--0-0--0-0--0-0--0-0--0-0--0-3--0---------|

..........................................................

Guitar 1:
D|--------------------------------------------------|
A|--------------------------------------------------|
F|------------------------------------5--7~---------|
C|-----------------------------5-4-3--5--7~---------|
G|---(5)-----------------5-4-3--------3--5~---------|
C|-----------------5-4-3----------------------------|

Guitar 2:
D|--------------------------------------------------|
A|--------------------------------------------------|
F|------------------------------------5--7~---------|
C|---(3)-----------------------5-4-3--5--7~---------|
G|-----------------------5-4-3--------3--5~---------|
C|-----------------5-4-3----------------------------|

Bass (arranged for guitar):
D|--------------------------------------------------|
A|--------------------------------------------------|
F|--------------------------------------------------|
C|-----------------------------5-4-3----------------|
G|-----------------------5-4-3--------3--5----------|
C|--0-0--0-0--0-0--5-4-3----------------------------|

...........................................................

Guitar 1:
D|--------------------------------------------------|
A|--------------------------------------------------|
F|--(7)---------------------------------------------|
C|--(7)--------------------------------3--0---------|
G|--(5)--------------------------------3--0---------|
C|-------------------------------------3--0---------|

Guitar 2:
D|--------------------------------------------------|
A|--------------------------------------------------|
F|--(7)---------------------------------------------|
C|--(7)--------------------------------3--0---------|
G|--(5)--------------------------------3--0---------|
C|-------------------------------------3--0---------|

Bass (arranged for guitar):
D|--------------------------------------------------|
A|--------------------------------------------------|
F|--------------------------------------------------|
C|--------------------------------------------------|
G|--------------------------------------------------|
C|--0--0-0--0-0--0-0--0-0--0-0--0-0--0-3--0---------|

...........................................................

Guitar 1:
D|--------------------------------------------------|
A|--------------------------------------------------|
F|------------------------------------5--3----------|
C|-----------------------------5-4-3--5--3----------|
G|-----------------------5-4-3--------3--1----------|
C|-----------------5-4-3----------------------------|

Guitar 2:
D|--------------------------------------------------|
A|--------------------------------------------------|
F|------------------------------------5--3----------|
C|-----------------------------5-4-3--5--3----------|
G|-----------------------5-4-3--------3--1----------|
C|-----------------5-4-3----------------------------|

Bass (arranged for guitar):
D|--------------------------------------------------|
A|--------------------------------------------------|
F|--------------------------------------------------|
C|-----------------------------5-4-3----------------|
G|-----------------------5-4-3--------3--1----------|
C|--0-0--0-0--0-0--5-4-3----------------------------|

PRECHORUS-

Guitar 1:
D|-----13-12-13----13-12-13----13-12-13-------------|
A|-15~---------15~---------15~---------15-----------|
F|--------------------------------------------------|
C|--------------------------------------------------|
G|--------------------------------------------------|
C|--------------------------------------------------|

Guitar 3:
D|--------------------------------------------------|
A|--------------------------------------------------|
F|--3--3--3--3------------3--3--3--3--5--5--555555--|
C|--3--3--3--3-5--5--5--5-3--3--3--3--5--5--555555--|
G|--1--1--1--1-5--5--5--5-1--1--1--1--3--3--333333--|
C|-------------5--5--5--5---------------------------|

CHORUS-

Guitar 1:
D|-----13-12-13----13-12-13----13-12-13---13--15--13|
A|-15~---------15~---------15~---------15-----------|
F|--------------------------------------------------|
C|--------------------------------------------------|
G|--------------------------------------------------|
C|--------------------------------------------------|

Guitar 2:
D|--------------------------------------------------|
A|--------------------------------------------------|
F|--------------------------------------------------|
C|--------------------------------------------------|
G|--------------------------------------------------|
C|--0--3--5b3-3--0-3--5b-3--0--3--5b3-5--5-6-5-3----|

Guitar 3:
D|--------------------------------------------------|
A|--------------------------------------------------|
F|------------------------3--3--3--3----------------|
C|--0--0--0--0-3--3--3--3-3--3--3--3-5--5--5--5-----|
G|--0--0--0--0-3--3--3--3-1--1--1--1-5--5--5--5-----|
C|--0--0--0--0-3--3--3--3------------5--5--5--5-----|

.........................................................

Guitar 1:
D|-----13-12-13----13-12-13----13-12-13---13--15--13|
A|-15~---------15~---------15~---------15-----------|
F|--------------------------------------------------|
C|--------------------------------------------------|
G|--------------------------------------------------|
C|--------------------------------------------------|

Guitar 2:
D|--------------------------------------------------|
A|--------------------------------------------------|
F|--------------------------------------------------|
C|--------------------------------------------------|
G|--------------------------------------------------|
C|--0--3--5b3-3--0-3--5b-3--0--3--5b3-5--5-6-5-3----|

Guitar 3:
D|--------------------------------------------------|
A|--------------------------------------------------|
F|------------------------3--3--3--3----------------|
C|--0--0--0--0-3--3--3--3-3--3--3--3-5--5--5--5-----|
G|--0--0--0--0-3--3--3--3-1--1--1--1-5--5--5--5-----|
C|--0--0--0--0-3--3--3--3------------5--5--5--5-----|

.......................................................

Guitar 1:
D|---------------------------|
A|-----15~-------------------|
F|---------------------------|
C|---------------------------|
G|---------------------------|
C|---------------------------|

Guitar 2:
D|---------------------------|
A|---------------------------|
F|---------------------------|
C|---------------------------|
G|---------------------------|
C|-----8~---1~---------------|

Guitar 3:
D|---------------------------|
A|---------------------------|
F|-----3---------------------|
C|-----3-----1---------------|
G|-----1-----1---------------|
C|-----------1---------------|

GUITAR BREAK-

Guitar 1:
D|--13-13-13--17--17-17--16--16-16--15--15-15-------|
A|--------------------------------------------------|
F|--------------------------------------------------|
C|--------------------------------------------------|
G|--------------------------------------------------|
C|--------------------------------------------------|

Guitar 2:
D|--------------------------------------------------|
A|--------------------------------------------------|
F|--14-14-14--17--17-17--16--16-16--15--15-15-------|
C|--x--x--x---x---x--x---x---x--x---x---x--x--------|
G|--12-12-12--15--15-15--14--14-14--13--13-13-------|
C|--------------------------------------------------|

Guitars 3:
D|--------------------------------------------------|
A|--------------------------------------------------|
F|--------------------------------------------------|
C|--------------------------------------------------|
G|--0---0-0--0-0--0-3--0---0-0--0-0------3-4-5------|
C|--0---0-0--0-0--0-3--0---0-0--0-0--3p0------------|

...........................................................

Guitar 1:
D|--13-13-13--17--17-17--16--16-16--15--15-15-------|
A|--------------------------------------------------|
F|--------------------------------------------------|
C|--------------------------------------------------|
G|--------------------------------------------------|
C|--------------------------------------------------|

Guitar 2:
D|--------------------------------------------------|
A|--------------------------------------------------|
F|--14--14-14--17--17-17--16--16-16--15--15-15------|
C|--x---x--x---x---x--x---x---x--x---x---x--x-------|
G|--12--12-12--15--15-15--14--14-14--13--13-13------|
C|--------------------------------------------------|

Guitars 3:
D|--------------------------------------------------|
A|--------------------------------------------------|
F|--------------------------------------------------|
C|--------------------------------5-4-3-------------|
G|--0-0--0-0--0-3-0---------5-4-3-------3--5--------|
C|--0-0--0-0--0-3-0--5-4-3--------------------------|

VERSE 2-

Guitar 1:
D|--13~---------------------------------------------|
A|--------------------------------------------------|
F|--------------------------------------------------|
C|--------------------------------------------------|
G|--------------------------------------------------|
C|--------------------------------------------------|

Guitar 2:
D|--------------------------------------------------|
A|--------------------------------------------------|
F|--14~---------------------------------------------|
C|--x-----------------------------------------------|
G|--12~---------------------------------------------|
C|--------------------------------------------------|

Guitars 3:
D|--------------------------------------------------|
A|--------------------------------------------------|
F|--------------------------------------------------|
C|--------------------------------------------------|
G|--0---0-0--0-0--0-0--0-0--0-0--0-0--0-3--0--------|
C|--0---0-0--0-0--0-0--0-0--0-0--0-0--0-3--0--------|

..........................................................

Guitar 3:
D|--------------------------------------------------|
A|--------------------------------------------------|
F|--------------------------------------------------|
C|--------------------------------------------------|
G|--0-0--0-0--0-0--0-0--0-0--0-0------3-4-5\--------|
C|--0-0--0-0--0-0--0-0--0-0--0-0--3p0---------------|

..........................................................

Guitar 1:
D|--------------------------------------------------|
A|--------------------------------------------------|
F|----------10-12~-----------------10-12~-----------|
C|-------12---------------------12------------------|
G|--------------------------------------------------|
C|--------------------------------------------------|

Guitars 3:
D|--------------------------------------------------|
A|--------------------------------------------------|
F|--------------------------------------------------|
C|--------------------------------------------------|
G|----0-0--0-0--0-0--0-0--0-0--0-0--0-3--0----------|
C|----0-0--0-0--0-0--0-0--0-0--0-0--0-3--0----------|

.........................................................

Guitar 3:
D|--------------------------------------------------|
A|--------------------------------------------------|
F|------------------------------------5--3~---------|
C|-----------------------------5-4-3--5--3~---------|
G|--0-0--0-0--0-0--------5-4-3--------3--1~---------|
C|--0-0--0-0--0-0--5-4-3----------------------------|

PRECHORUS-

Guitar 1:
D|-----13-12-13----13-12-13----13-12-13-------------|
A|-15~---------15~---------15~---------15-----------|
F|--------------------------------------------------|
C|--------------------------------------------------|
G|--------------------------------------------------|
C|--------------------------------------------------|

Guitar 3:
D|--------------------------------------------------|
A|--------------------------------------------------|
F|--3--3--3--3------------3--3--3--3--5--5--555555--|
C|--3--3--3--3-5--5--5--5-3--3--3--3--5--5--555555--|
G|--1--1--1--1-5--5--5--5-1--1--1--1--3--3--333333--|
C|-------------5--5--5--5---------------------------|

CHORUS-

Guitar 1:
D|-----13-12-13----13-12-13----13-12-13---13--15--13|
A|-15~---------15~---------15~---------15-----------|
F|--------------------------------------------------|
C|--------------------------------------------------|
G|--------------------------------------------------|
C|--------------------------------------------------|

Guitar 2:
D|--------------------------------------------------|
A|--------------------------------------------------|
F|--------------------------------------------------|
C|--------------------------------------------------|
G|--------------------------------------------------|
C|--0--3--5b3-3--0-3--5b-3--0--3--5b3-5--5-6-5-3----|

Guitar 3:
D|--------------------------------------------------|
A|--------------------------------------------------|
F|------------------------3--3--3--3----------------|
C|--0--0--0--0-3--3--3--3-3--3--3--3-5--5--5--5-----|
G|--0--0--0--0-3--3--3--3-1--1--1--1-5--5--5--5-----|
C|--0--0--0--0-3--3--3--3------------5--5--5--5-----|

.........................................................

Guitar 1:
D|-----13-12-13----13-12-13----13-12-13---13--15--13|
A|-15~---------15~---------15~---------15-----------|
F|--------------------------------------------------|
C|--------------------------------------------------|
G|--------------------------------------------------|
C|--------------------------------------------------|

Guitar 2:
D|--------------------------------------------------|
A|--------------------------------------------------|
F|--------------------------------------------------|
C|--------------------------------------------------|
G|--------------------------------------------------|
C|--0--3--5b3-3--0-3--5b-3--0--3--5b3-5--5-6-5-3----|

Guitar 3:
D|--------------------------------------------------|
A|--------------------------------------------------|
F|------------------------3--3--3--3----------------|
C|--0--0--0--0-3--3--3--3-3--3--3--3-5--5--5--5-----|
G|--0--0--0--0-3--3--3--3-1--1--1--1-5--5--5--5-----|
C|--0--0--0--0-3--3--3--3------------5--5--5--5-----|

.......................................................

Guitar 1:
D|---------------------------|
A|-----15~-------------------|
F|---------------------------|
C|---------------------------|
G|---------------------------|
C|---------------------------|

Guitar 2:
D|---------------------------|
A|---------------------------|
F|---------------------------|
C|---------------------------|
G|---------------------------|
C|-----8~---1~---------------|

Guitar 3:
D|---------------------------|
A|---------------------------|
F|-----3---------------------|
C|-----3-----1---------------|
G|-----1-----1---------------|
C|-----------1---------------|

BRIDGE -

Guitar 3:
D|--------------------------------------------------|
A|--------------------------------------------------|
F|--------------------------------------------------|    X2
C|--------------------------------------------------|
G|--0--0-0--0-0--0-0--0-0--0-0--0-0--0-0--0-0-------|
C|--0--0-0--0-0--0-0--0-0--0-0--0-0--0-0--0-0-------|

.........................................................

Guitar 1:
D|---13-12-11-10-------------------------|
A|--------------14-13-12-11--------------|
F|-------------------------14-13-12-11---|
C|---------------------------------------|
G|---------------------------------------|
C|---------------------------------------|

Guitar 2:
D|---------------------------------------|
A|---------------------------------------|
F|----10-9--8--7-------------------------|
C|---------------11-10-9--8--------------|
G|-------------------------12-11-10--9---|
C|---------------------------------------|

Guitar 3:
D|---------------------------------------|
A|---------------------------------------|
F|---------------------------------------|    
C|---------------------------------------|
G|---0--0---0--0---0--0---0--0---0-------|
C|---0--0---0--0---0--0---0--0---0-------|

........................................................

Guitar 1:
D|---14-13-12-11-------------------------|
A|--------------15-14-13-12--------------|
F|-------------------------15-14-13-12---|
C|---------------------------------------|
G|---------------------------------------|
C|---------------------------------------|

Guitar 2:
D|---------------------------------------|
A|---------------------------------------|
F|---11-10-9--8--------------------------|
C|--------------12-11-10-9---------------|
G|--------------------------13-12-11-10--|
C|---------------------------------------|

Guitar 3:
D|---------------------------------------|
A|---------------------------------------|
F|---------------------------------------|    
C|---------------------------------------|
G|---0---0--0---0--0---0--0---0--0-------|
C|---0---0--0---0--0---0--0---0--0-------|

........................................................

Guitar 1:
D|---15-14-13-12-------------------------|
A|--------------16-15-14-13--------------|
F|-------------------------16-15-14-13---|
C|---------------------------------------|
G|---------------------------------------|
C|---------------------------------------|

Guitar 2:
D|---------------------------------------|
A|---------------------------------------|
F|---12-11-10-9--------------------------|
C|--------------13-12-11-10--------------|
G|-------------------------14-13-12-11---|
C|---------------------------------------|

Guitar 3:
D|---------------------------------------|
A|---------------------------------------|
F|---------------------------------------|    
C|---------------------------------------|
G|---0---0--0---0--0---0--0---0--0-------|
C|---0---0--0---0--0---0--0---0--0-------|

........................................................

Guitar 1:
D|---16-15-14-13-------------------------|
A|--------------17-16-15-14--------------|
F|-------------------------17-16-15-14---|
C|---------------------------------------|
G|---------------------------------------|
C|---------------------------------------|

Guitar 2:
D|---------------------------------------|
A|---------------------------------------|
F|---13-12-11-10-------------------------|
C|--------------14-13-12-11--------------|
G|-------------------------15-14-13-12---|
C|---------------------------------------|

Guitar 3:
D|---------------------------------------|
A|---------------------------------------|
F|---------------------------------------|    
C|---------------------------------------|
G|---0---0--0---0--0---0--0---0--0-------|
C|---0---0--0---0--0---0--0---0--0-------|

SOLO

Guitar 1:
D|--------------------------------------------------|
A|--15b------------------------15--15---15--18b\----|
F|--15b------------------------15--15-17--17--------|
C|------17b--15--17-17-17-17-----17-----------------|
G|--------------------------------------------------|
C|--------------------------------------------------|

Guitar 3:
D|--------------------------------------------------|
A|--------------------------------------------------|
F|--------------------------------------------------|
C|--5------5------5------5------5------5------5-----|
G|--5------5------5------5------5------5------5-----|
C|--5------5------5------5------5------5------5-----|

........................................................

Guitar 2 (w/ wah):
D|--------------------------------------------------|
A|-----------------------10--12--10-----------------|
F|--/10----12---10--12---10--12--10----12\----------|
C|--/10----12---10--12-----------------12\----------|
G|--------------------------------------------------|
C|--------------------------------------------------|

Guitar 3:
D|--------------------------------------------------|
A|--------------------------------------------------|
F|--------------------------------------------------|    
C|--------------------------------------------------|
G|--0--0-0--0-0--0-0--0-0--0-0--0-0--0-0--0-0-------|
C|--0--0-0--0-0--0-0--0-0--0-0--0-0--0-0--0-0-------|

..........................................................

Guitar 1:
D|--13----13----13---------16-15-14-----------------|
A|--16b---16b---16b---15~----------18-17-16-15~-----|
F|--------------------------------------------------|
C|--------------------------------------------------|
G|--------------------------------------------------|
C|--------------------------------------------------|

Guitar 3:
D|--------------------------------------------------|
A|--------------------------------------------------|
F|--------------------------------------------------|
C|--5------5------5------5------5------5------5-----|
G|--5------5------5------5------5------5------5-----|
C|--5------5------5------5------5------5------5-----|

...........................................................

Guitar 2:
D|--------------------------------------------------|
A|--///10-------------------------------------------|
F|--///10---------10h12p10h12p10h12p10h12--12b------|
C|--------------------------------------------------|
G|--------------------------------------------------|
C|--------------------------------------------------|
                                           A.H.     

Guitar 3:
D|--------------------------------------------------|
A|--------------------------------------------------|
F|--------------------------------------------------|    
C|--------------------------------------------------|
G|--0--0-0--0-0--0-0--0-0--0-0--0-0--0-0--0-0-------|
C|--0--0-0--0-0--0-0--0-0--0-0--0-0--0-0--0-0-------|

PRECHORUS-

Guitar 1:
D|------------13------12------13------------13------12-------13--------|
A|----15~--------------------------15~---------------------------------|
F|---------------------------------------------------------------------|
C|---------------------------------------------------------------------|
G|---------------------------------------------------------------------|
C|---------------------------------------------------------------------|

Guitar 2:
D|--18-17-16-15--------------------------------------------------------|
A|-------------19-18-17-16---------------------------------------------|
F|------------------------19-18-17-18----------------------------------|
C|-----------------------------------20-19-18-17-----------------------|
G|----------------------------------------------20-19-18-17------------|
C|---------------------------------------------------------23-22-21-20-|

Guitar 3:
D|---------------------------------------------------------------------|
A|---------------------------------------------------------------------|
F|--3--------3--------3--------3---------------------------------------|
C|--3--------3--------3--------3------5---------5--------5--------5----|
G|--1--------1--------1--------1------5---------5--------5--------5----|
C|------------------------------------5---------5--------5--------5----|

........................................................................

Guitar 1:
D|-----------13------12-------13---------------------------------------|
A|--15~-----------------------------15\-------------------------------|
F|---------------------------------------------------------------------|
C|---------------------------------------------------------------------|
G|---------------------------------------------------------------------|
C|---------------------------------------------------------------------|

Guitar 2:
D|--18-17-16-15--------------------------------------------------------|
A|-------------19-18-17-16---------------------------------------------|
F|------------------------19-18-17-18----------------------------------|
C|---------------------------------------------------------------------|
G|---------------------------------------------------------------------|
C|---------------------------------------------------------------------|

Guitar 3:
D|---------------------------------------------------------------------|
A|---------------------------------------------------------------------|
F|--3--------3--------3--------3-----5--------5------5-5-5-5-5-5-------|
C|--3--------3--------3--------3-----5--------5------5-5-5-5-5-5-------|
G|--1--------1--------1--------1-----3--------3------3-3-3-3-3-3-------|
C|---------------------------------------------------------------------|

CHORUS-

Guitar 1:
D|-----13-12-13----13-12-13----13-12-13---13--15--13|
A|-15~---------15~---------15~---------15-----------|
F|--------------------------------------------------|
C|--------------------------------------------------|
G|--------------------------------------------------|
C|--------------------------------------------------|

Guitar 2:
D|--------------------------------------------------|
A|--------------------------------------------------|
F|--------------------------------------------------|
C|--------------------------------------------------|
G|--------------------------------------------------|
C|--0--3--5b3-3--0-3--5b-3--0--3--5b3-5--5-6-5-3----|

Guitar 3:
D|--------------------------------------------------|
A|--------------------------------------------------|
F|------------------------3--3--3--3----------------|
C|--0--0--0--0-3--3--3--3-3--3--3--3-5--5--5--5-----|
G|--0--0--0--0-3--3--3--3-1--1--1--1-5--5--5--5-----|
C|--0--0--0--0-3--3--3--3------------5--5--5--5-----|

.........................................................

Guitar 1:
D|-----13-12-13----13-12-13----13-12-13---13--15--13|
A|-15~---------15~---------15~---------15-----------|
F|--------------------------------------------------|
C|--------------------------------------------------|
G|--------------------------------------------------|
C|--------------------------------------------------|

Guitar 2:
D|--------------------------------------------------|
A|--------------------------------------------------|
F|--------------------------------------------------|
C|--------------------------------------------------|
G|--------------------------------------------------|
C|--0--3--5b3-3--0-3--5b-3--0--3--5b3-5--5-6-5-3----|

Guitar 3:
D|--------------------------------------------------|
A|--------------------------------------------------|
F|------------------------3--3--3--3----------------|
C|--0--0--0--0-3--3--3--3-3--3--3--3-5--5--5--5-----|
G|--0--0--0--0-3--3--3--3-1--1--1--1-5--5--5--5-----|
C|--0--0--0--0-3--3--3--3------------5--5--5--5-----|

............................................................

Guitar 1:
D|-----13-12-13----13-12-13----13-12-13---13--15--13|
A|-15~---------15~---------15~---------15-----------|
F|--------------------------------------------------|
C|--------------------------------------------------|
G|--------------------------------------------------|
C|--------------------------------------------------|

Guitar 2:
D|--------------------------------------------------|
A|--------------------------------------------------|
F|--------------------------------------------------|
C|--------------------------------------------------|
G|--------------------------------------------------|
C|--0--3--5b3-3--0-3--5b-3--0--3--5b3-5--5-6-5-3----|

Guitar 3:
D|--------------------------------------------------|
A|--------------------------------------------------|
F|------------------------3--3--3--3----------------|
C|--0--0--0--0-3--3--3--3-3--3--3--3-5--5--5--5-----|
G|--0--0--0--0-3--3--3--3-1--1--1--1-5--5--5--5-----|
C|--0--0--0--0-3--3--3--3------------5--5--5--5-----|

.........................................................

Guitar 1:
D|-----13-12-13----13-12-13----13-12-13---13--15--13|
A|-15~---------15~---------15~---------15-----------|
F|--------------------------------------------------|
C|--------------------------------------------------|
G|--------------------------------------------------|
C|--------------------------------------------------|

Guitar 2:
D|--------------------------------------------------|
A|--------------------------------------------------|
F|--------------------------------------------------|
C|--------------------------------------------------|
G|--------------------------------------------------|
C|--0--3--5b3-3--0-3--5b-3--0--3--5b3-5--5-6-5-3----|

Guitar 3:
D|--------------------------------------------------|
A|--------------------------------------------------|
F|------------------------3--3--3--3----------------|
C|--0--0--0--0-3--3--3--3-3--3--3--3-5--5--5--5-----|
G|--0--0--0--0-3--3--3--3-1--1--1--1-5--5--5--5-----|
C|--0--0--0--0-3--3--3--3------------5--5--5--5-----|

.......................................................

Guitar 1:
D|---------------------------|
A|-----15~-------------------|
F|---------------------------|
C|---------------------------|
G|---------------------------|
C|---------------------------|

Guitar 2:
D|---------------------------|
A|---------------------------|
F|---------------------------|
C|---------------------------|
G|---------------------------|
C|-----8~---1~---------------|

Guitar 3:
D|---------------------------|
A|---------------------------|
F|-----3---------------------|
C|-----3-----1---------------|
G|-----1-----1---------------|
C|-----------1---------------|

OUTRO-

Guitar 2+3:
D|--------------------------------------------------|
A|--------------------------------------------------|
F|--------------------------------------------------|    X8
C|--------------------------------------------------|
G|--0--0-0--0-0--0-0--0-0--0-0--0-0--0-0--0-0-------|
C|--0--0-0--0-0--0-0--0-0--0-0--0-0--0-0--0-0-------|


        RATE AND COMMENT!

Добавлено: 29.07.2013
Другие материалы по этой песне:
  • Аккорды и текст

Страница создана 29.07.2013
http://primanota.ru/atreyu/black-days-begin-chords.htm
Привет, Гость.
Предлагаем пройти революционный курс по гитаре.
Подарок от PrimaNota.Ru, забирай!