PrimaNota.ru - самый крупный в мире бесплатный архив песенных текстов, аккордов, табулатур и нот


Atreyu - Becoming The Bull - текст песни, таба, бас-таба, видео

Регистрация Запомнить меня
Войти через:  Facebook Google Twitter Vk Yandex Mail.ru

Atreyu - Becoming The Bull - текст песни, таба, бас-таба, видео

Печатать
Просмотров: 207
Авторы: Brandon Saller, Alex Varkatzas, Travis Miguel, Dan Jacobs, Marc McKnight

   Band: Atreyu
   Song: Becoming The Bull
  Album: Lead Sails Paper Anchor
          Tabber: dicer4        ( Dereck )
           Email: dicer4@msn.com

   release notes:ok i saw these tabs for this song, there good, but all of them either
wrong by a little bit or they are missing notes, or notes arent played in the right order
there just plain,, WRONG! lol, so i did out all of guitar ones main riffs, i didnt do 
guitar in the chourse or the solo at the end of the last choures, i got you the
for the song in a hurrie cuz its a crazy song. so dont take into concideration the parts
are missing when you rate this tab.

   Verse,
d|------------------------------------|--------------------------|
A|------------------------------------|--------------------------|
D|------------------------------------|--------------------------|
C|----------------7-6------------(x3)-|--------------7-----------|
G|------8p5--5-8------8--10-8---------|-----8p5--5-8---0-0-0-0---|
C|-0-5------------------------10-7----|-0-5------------0-0-0-0-3-|
pm . .       . .                     pm . .      . .   . . . .


   Pre-Choures
d|------------------------------------------|
A|------------------------------------------|
F|------------------------------------------|
C|------------------------------------------|
G|--------------------00-00-----------------|
C|-------850850850850-00-00-----------------|
pm/trp   ************ .. ..

   Choures
d|--------------------------------------|
A|--------------------------------------|
F|--------------------------------------|
C|-33333333-----------55555555----------|
G|-11111111--00000000-33333333-55555555-|
C|-----------00000000----------55555555-|

   Bridge
d|-------------------------------------|------------|
A|-------------------------------------|------------|
F|-------------------------------------|------------|
C|-------------------------------------|------------|
G|-00---00---0-00---00--00--00----0-00-|-00-00------|
C|-00---00---0-00---00--00--00----0-00-|-00-00-3----|
pm ..   ..   . ..   ..  ..  ..    . ..   .. ..

  Skipped the queit part

   Breakdown  (its fast so i broke it down,, cuz know one has it right, they have the
notes, but not the right order)
d|------------------|------|---------------------|-------|
A|------------------|------|---------------------|-------|
F|------------------|------|---------------------|-------|
C|------------------|------|---------------------|-------|
G|------------------|------|---------------------|-------|
C|--850-850-850-850-|-8505-|-1070-1070-1070-1070-|-10757-|
trp *** *** *** ***   ****   * ** * ** * ** * **   * ***
                             ^    ^    ^    ^      ^
for all you guys that are gunna complain that this is wrong                       THESE
TENS!!

d|-----------------|------|--------------------|---------|
A|-----------------|------|--------------------|---------|
F|-----------------|------|--------------------|---------|
C|-----------------|------|--------------------|---------|
G|-----------------|------|--------------------|-0--0--0-|
C|-850-850-850-850-|-8505-|-1070-1070-1070-107-|-0--0--0-|
trp*** *** *** ***   ****   * ** * ** * ** * *
                                              ^
YES I KNOW THAT THERE ISNT AN "0" THERE! its not supposed to be.:)


h   Hammer on
p   Pull off
.   Palm mute
trp Tremolo picking
^   See comment
Добавлено: 27.11.2013
Другие материалы по этой песне:
  • Аккорды и текст

Страница создана 28.06.2013
http://primanota.ru/atreyu/becoming-the-bull-chords.htm
Привет, Гость.
Предлагаем пройти революционный курс по гитаре.
Подарок от PrimaNota.Ru, забирай!