PrimaNota.ru - самый крупный в мире бесплатный архив песенных текстов, аккордов, табулатур и нот


Atreyu - As The Line Between Machinery And Humanity Blurs - текст песни, таба, видео

Регистрация Запомнить меня
Войти через:  Facebook Google Twitter Vk Yandex Mail.ru

Atreyu - As The Line Between Machinery And Humanity Blurs - текст песни, таба, видео

Печатать
Просмотров: 109
e-------------------------------|
B-------------------------------|
G-------------------------------|
D-0-----------------------------|
A-0-----------------------------|
D-0-----------------------------| x5

e-----------------------------------------|
B-----------------------------------------|
G-----------------------------------------|
D-----------------------------------------|
A-0--1-0--4-3-1------3-3-3-3-1-1-1-1------|
D-0--1-0--4-3-1--x3--3-3-3-3-1-1-1-1------| x3

e------------------------------------|
B------------------------------------|
G------8----7--7-8-108---------------|
D------x----x--x-x-x-x---------------|
A-0--0-6--0-5--5/6-8-6---------------|
D-0--0----0--------------------------| x4

e---------------------------------------|
B---------------------------------------|
G----------------7-----------------8----|
D----------------x-----------------x----|
A----------------5-----------------6----|
D-0000-0000-0000----0000-0000-0000------| x2

e-----------------------------------------|
B-----------------------------------------|
G------7-----8----108---------------------|
D------x-----x----x-x---------------------|
A-0000-5--00-6-00-8-6---------------------|
D-0000----00---00-------------------------| x4

e-----------------------------------------|
B-----------------------------------------|
G-----------------------------------------|
D-----------------------------------------|
A-0--1-0--4-3-1------3-3-3-3-1-1-1-1------|
D-0--1-0--4-3-1--x3--3-3-3-3-1-1-1-1------| x3

e------------------------------------|
B------------------------------------|
G------8----7--7-8-108---------------|
D------x----x--x-x-x-x---------------|
A-0--0-6--0-5--5/6-8-6---------------|
D-0--0----0--------------------------| x4

e---------------------------------------|
B---------------------------------------|
G----------------7-----------------8----|
D----------------x-----------------x----|
A----------------5-----------------6----|
D-0000-0000-0000----0000-0000-0000------| x2

e-----------------------------------------|
B-----------------------------------------|
G------7-----8----108---------------------|
D------x-----x----x-x---------------------|
A-0000-5--00-6-00-8-6---------------------|
D-0000----00---00-------------------------| x4

e-----------------------------------------------------|
B-----------------------------------------------------|
G-----------------------------------------------------|
D-----------------------------------------------------|
A-0-0-0-0-1-0-0--0-0-0-1-0-0--0-0-0-0-1-0-0--3-3--1-1-|
D-0-0-0-0-1-0-0--0-0-0-1-0-0--0-0-0-0-1-0-0--3-3--1-1-|

e----------------------------------------------------|
B----------------------------------------------------|
G----------------------------------------------------|
D----------------------------------------------------|
A-0-0-0-0-1-0-0--0-0-0-1-0-0--0-0-0-0-1-0-0--0-------|
D-0-0-0-0-1-0-0--0-0-0-1-0-0--0-0-0-0-1-0-0--0-------|

e------------------------------------------------------|
B------------------------------------------------------|
G------------------------------------------------------|
D------------------------------------------------------|
A-0-0-0-0-1-0-0--0-0-0-1-0-0--0-0-0-0-1-0-0--3-3--1-1--|
D-0-0-0-0-1-0-0--0-0-0-1-0-0--0-0-0-0-1-0-0--3-3--1-1--| X4

Guitar 1:
e------------------------------------------------------|
B------------------------------------------------------|
G------------------------------------------------------|
D------------------------------------------------------|
A-0-0-0-0-1-0-0--0-0-0-1-0-0--0-0-0-0-1-0-0--3-3--1-1--|
D-0-0-0-0-1-0-0--0-0-0-1-0-0--0-0-0-0-1-0-0--3-3--1-1--| X4

Guitar 2:
e----------------------------------|
B----------------------------------|
G-6-6-6-6-6-6-6-6-1010101010101010-|
D-X-X-X-X-X-X-X-X-X-X-X-X-X-X-X-X--|
A-5-5-5-5-5-5-5-5-8-8-8-8-8-8-8-8--|
D----------------------------------|

e----------------------------------|
B----------------------------------|
G-6-6-6-6-6-6-6-6-1010101010101010-|
D-X-X-X-X-X-X-X-X-X-X-X-X-X-X-X-X--|
A-5-5-5-5-5-5-5-5-1212121212121212-|
D----------------------------------|

e----------------------------------|
B----------------------------------|
G-6-6-6-6-6-6-6-6-1010101010101010-|
D-X-X-X-X-X-X-X-X-X-X-X-X-X-X-X-X--|
A-5-5-5-5-5-5-5-5-8-8-8-8-8-8-8-8--|
D----------------------------------|

e----------------------------------|
B----------------------------------|
G-6-6-6-6-6-6-6-6-1010101010101010-|
D-X-X-X-X-X-X-X-X-X-X-X-X-X-X-X-X--|
A-5-5-5-5-5-5-5-5-1212121212121212-|
D----------------------------------|

e-------------------------|
B-------------------------|
G-------------------------|
D-0-----------------------|
A-0-----------------------|
D-0-----------------------|

e-----------------------------------------|
B-----------------------------------------|
G-----------------------------------------|
D-----------------------------------------|
A-0--1-0--4-3-1------3-3-3-3-1-1-1-1------|
D-0--1-0--4-3-1--x3--3-3-3-3-1-1-1-1------| x3

e------------------------------------|
B------------------------------------|
G------8----7--7-8-108---------------|
D------x----x--x-x-x-x---------------|
A-0--0-6--0-5--5/6-8-6---------------|
D-0--0----0--------------------------| x4

e---------------------------------------|
B---------------------------------------|
G----------------7-----------------8----|
D----------------x-----------------x----|
A----------------5-----------------6----|
D-0000-0000-0000----0000-0000-0000------| x2

e-----------------------------------------|
B-----------------------------------------|
G------7-----8----108---------------------|
D------x-----x----x-x---------------------|
A-0000-5--00-6-00-8-6---------------------|
D-0000----00---00-------------------------| x4

e-------------------------------------|
B-------------------------------------|
G-------------------------------------|
D-------------------------------------|
A-0-0-0-0-1-0-0-0---------------------|
D-0-0-0-0-1-0-0-0---------------------|
Добавлено: 15.09.2013
Другие материалы по этой песне:
  • Аккорды и текст

Страница создана 29.05.2012
http://primanota.ru/atreyu/as-the-line-between-machinery-and-humanity-blurs-chords.htm
Привет, Гость.
Предлагаем пройти революционный курс по гитаре.
Подарок от PrimaNota.Ru, забирай!