PrimaNota.ru - самый крупный в мире бесплатный архив песенных текстов, аккордов, табулатур и нот


Atomsko Skloniste - Pomorac Sam Majko - бас-таба, видео

Регистрация Запомнить меня
Войти через:  Facebook Google Twitter Vk Yandex Mail.ru

Atomsko Skloniste - Pomorac Sam Majko - бас-таба, видео

Печатать
Просмотров: 104
Tabed by Marko
Band:Atomsko Skloniste
Song:Pomorac sam majko
e-mail on defekcija@yahoo.com

POCETAK x6 (Bas ulazi kada bubanj zavrsi prelaz)
pesma se svira sa trzalicom
G-------------------------------|
D---------------------7--54-----|
A---7--7--7--5--7--7------------|
E-------------------------------|

REFREN
G-----------------------------------------------------------|
D---------------------------5~----5~------------------------|
A---3--3-3-3---5--5-5-5--7----7-------3--3-3-3---5--5-5-5---|
E-----------------------------------------------------------|

STROFA x6
G-------------------------------|
D---------------------7--54-----|
A---7--7--7--5--7--7------------|
E-------------------------------|

REFREN
G-----------------------------------------------------------|
D---------------------------5~----5~------------------------|
A---3--3-3-3---5--5-5-5--7----7-------3--3-3-3---5--5-5-5---|
E-----------------------------------------------------------|

PRELAZ
G--------------------------------------------|
D--------------------------------------------|
A-----7-----------10---7-----------10---7--\-|
E-----------8----------------8---------------|

SOLO X8
G-------------------------------|
D-------------------------------|
A---7--7--5--5--3--3--2--2------|
E-------------------------------|

REFREN
G-----------------------------------------------------------|
D---------------------------5~----5~------------------------|
A---3--3-3-3---5--5-5-5--7----7-------3--3-3-3---5--5-5-5---|
E-----------------------------------------------------------|

STROFA x6
G-------------------------------|
D---------------------7--54-----|
A---7--7--7--5--7--7------------|
E-------------------------------|

REFREN
G-----------------------------------------------------------|
D---------------------------5~----5~------------------------|
A---3--3-3-3---5--5-5-5--7----7-------3--3-3-3---5--5-5-5---|
E-----------------------------------------------------------|

STROFA x6
G-------------------------------|
D---------------------7--54-----|
A---7--7--7--5--7--7------------|
E-------------------------------|

REFREN
G-----------------------------------------------------------|
D---------------------------5~----5~------------------------|
A---3--3-3-3---5--5-5-5--7----7-------3--3-3-3---5--5-5-5---|
E-----------------------------------------------------------|

PRELAZ
G--------------------------------------------|
D--------------------------------------------|
A-----7-----------10---7-----------10---7--\-|
E-----------8----------------8---------------|
 To je to...
pesma je prilicno laka!
www.officialalisterhome-page.com
Добавлено: 31.07.2012
Другие материалы по этой песне:

Страница создана 08.03.2012
http://primanota.ru/atomsko-skloniste/pomorac-sam-majko-chords.htm
Привет, Гость.
Предлагаем пройти революционный курс по гитаре.
Подарок от PrimaNota.Ru, забирай!